» » »

42 Tabs (ver.1)

Artists:  A B C D E F G H I J K L M N O P Q R S T U V W X Y Z # 

42 Tabs (ver.1)

Manchester Orchestra
Rating:
0/5 (0 votes)

Hard to play? Try these video lessons and learn fast.
                Standard tuning.

This is a pretty basic tab of this song, but hopefully someone else will build upon it 
we'll all have a great tab.
Anywho here's what I'm hearing.

intro/verse

e|-----------------------------------|-----------------------------------|
b|-----------------------------------|-----------------------------------|
g|----8---8---8---8---8---8---8---8--|----8---8---8---8---8---8---8---8--|
d|--9---9---9---9---9---9---9---9----|--9---9---9---9---9---9---9---9----|
a|-----------------------------------|-----------------------------------|
E|-----------------------------------|-----------------------------------|

e|-----------------------------------|-----------------------------------|
b|-----------------------------------|-----------------------------------|
g|----9---9---9---9---9---9---9---9--|----8---8---8---8---8---8---8---8--|
d|--9---9---9---9---9---9---9---9----|--9---9---9---9---9---9---9---9----|
a|-----------------------------------|-----------------------------------|
E|-----------------------------------|-----------------------------------|

When you were another man...
e|-----------------------------------|-----------------------------------|
b|-----------------------------------|-----------------------------------|
g|----8---8---8---8---8---8---8---8--|----8---8---8---8---8---8---8---8--|
d|--9---9---9---9---9---9---9---9----|--9---9---9---9---9---9---9---9----|
a|-----------------------------------|-----------------------------------|
E|-----------------------------------|-----------------------------------|

...walls? Did you adapt...           ...walls
e|-----------------------------------|-----------------------------------|
b|-----------------------------------|-----------------------------------|
g|----9---9---9---9---9---9---9---9--|----8---8---8---8---8---8---8---8--|
d|--9---9---9---9---9---9---9---9----|--9---9---9---9---9---9---9---9----|
a|-----------------------------------|-----------------------------------|
E|-----------------------------------|-----------------------------------|


I found the wallpaper...
e|-----------------------------------|-----------------------------------|
b|-----------------------------------|-----------------------------------|
g|----8---8---8---8---8---8---8---8--|----8---8---8---8---8---8---8---8--|
d|--9---9---9---9---9---9---9---9----|--9---9---9---9---9---9---9---9----|
a|-----------------------------------|-----------------------------------|
E|-----------------------------------|-----------------------------------|

But you don't...                     ...alone.
e|-----------------------------------|-----------------------------------|
b|-----------------------------------|-----------------------------------|
g|----9---9---9---9---9---9---9---9--|----8---8---8---8---8---8---8---8--|
d|--9---9---9---9---9---9---9---9----|--9---9---9---9---9---9---9---9----|
a|-----------------------------------|-----------------------------------|
E|-----------------------------------|-----------------------------------|


...wondered..    ...alone...
e|-----------------------------------|-----------------------------------|
b|-----------------------------------|-----------------------------------|
g|----8---8---8---8---8---8---8---8--|----8---8---8---8---8---8---8---8--|
d|-----------------------------------|--9---9---9---9---9---9---9---9----|
a|--9---9---9---9---7---7---7---7----|-----------------------------------|
E|-----------------------------------|-----------------------------------|

...wondered..    ...alone...
e|-----------------------------------|-----------------------------------|
b|-----------------------------------|-----------------------------------|
g|----8---8---8---8---8---8---8---8--|----8---8---8---8---8---8---8---8--|
d|-----------------------------------|--9---9---9---9---9---9---9---9----|
a|--9---9---9---9---7---7---7---7----|-----------------------------------|
E|-----------------------------------|-----------------------------------|


What do you think...
e|-----------------------------------|-----------------------------------|
b|-----------------------------------|-----------------------------------|
g|----8---8---8---8---8---8---8---8--|----8---8---8---8---8---8---8---8--|
d|--9---9---9---9---9---9---9---9----|--9---9---9---9---9---9---9---9----|
a|-----------------------------------|-----------------------------------|
E|-----------------------------------|-----------------------------------|

..zigs and zags...                   ...another fag.
e|-----------------------------------|-----------------------------------|
b|-----------------------------------|-----------------------------------|
g|----9---9---9---9---9---9---9---9--|----8---8---8---8---8---8---8---8--|
d|--9---9---9---9---9---9---9---9----|--9---9---9---9---9---9---9---9----|
a|-----------------------------------|-----------------------------------|
E|-----------------------------------|-----------------------------------|

I was hung over...                   ...hang over.
e|-----------------------------------|-----------------------------------|
b|-----------------------------------|-----------------------------------|
g|-----------------------------------|-----------------------------------|
d|----9---9---9---9---9---9---9---9--|----9---9---9---9---9---9---9---9--|
a|--9---9---9---9---9---9---9---9----|--7---7---7---7---9---9---7---7----|
E|-----------------------------------|-----------------------------------|

I was hung over...                   ...hang over.
e|-----------------------------------|-----------------------------------|
b|-----------------------------------|-----------------------------------|
g|-----------------------------------|-----------------------------------|
d|----9---9---9---9---9---9---9---9--|----9---9---9---9---9---9---9---9--|
a|--9---9---9---9---9---9---9---9----|--7---7---7---7---9---9---7---7----|
E|-----------------------------------|-----------------------------------|

To block...                          ...biblical...    ...fire.
e|-----------------------------------|-----------------------------------|
b|-----------------------------------|-----------------------------------|
g|-----------------------------------|-----------------------------------|
d|----9---9---9---9---9---9---9---9--|----9---9---9---9---9---9---9---9--|
a|--9---9---9---9---9---9---9---9----|--7---7---7---7---9---9---7---7----|
E|-----------------------------------|-----------------------------------|


e|-----------------------------------|-----------------------------------|
b|-----------------------------------|-----------------------------------|
g|----8---8---8---8---8---8---8---8--|----8---8---8---8---8---8---8---8--|
d|--9---9---9---9---9---9---9---9----|--9---9---9---9---9---9---9---9----|
a|-----------------------------------|-----------------------------------|
E|-----------------------------------|-----------------------------------|

Repeat as needed
And please by all means make any and all suggestions for corrections.

Feed back is much appreciated.
            
Hard to play? Try these video lessons and learn fast. | Correct




comments powered by Disqus
↑ Back to top | Tablatures and chords are parodies/interpretations of the original songs. You may use it for private study, scholarship, research or language learning purposes only