» » »

No Plan B Tabs (ver.2)

Artists:  A B C D E F G H I J K L M N O P Q R S T U V W X Y Z # 

No Plan B Tabs (ver.2)

Manafest
Rating:
5/5 (1 vote)

Hard to play? Try these video lessons and learn fast.
                h = hammer-on
b = bend string
/ = slide up
\ = slide down
~ = Barely rest finger on string on that fret.

intro

E-----------------------------------------------  ---------------------------|
B-----------------------------------------------  ---------------------------|
G-----------------------------------------------  ---------------------------|
D-----------------------------------------------  ---------------------------|
A-5/12-12-12-10-10-10-12------------------------  12-12-12-10-10-12-12-------|
D------------------------12-12-12-12-12-12-12-12  ---------------------10-10-|

E---------------------|
B---------------------|
G---------------------|
D---------------------| x2
A---------------------|
D-10-10-10-10-10-10---|

VERSE
       ~  ~   ~  ~
D-------------------|
A-------------------|
D-0-0-24-24-0-24-24-|

CHORUS
E-----------------------------------------------------------------------------|
B-----------------------------------------------------------------------------|    x4
G-----------------------------------------------------------------------------|
D-----------------------------------------------------------------------------|
A-0-0-0-0-0-0-0-0-7-7-7-7-7-7-7-7-3-3-3-3-3-3-3-3-10-10-10-10-10-10-10-10-10--|
D-0-0-0-0-0-0-0-0-7-7-7-7-7-7-7-7-3-3-3-3-3-3-3-3-10-10-10-10-10-10-10-10-10--|


After last one:

D-----------------|
A-7-5-7-5-7h9p7---|
D-----------------|

BRIDGE

(Palm Muted)

E-------------------------------------------------------|
B-------------------------------------------------------|
G-------------------------------------------------------|
D-------------------------------------------------------|      x2
A-7-77777777777-6-66666666-3-333333333--12-10-0-7-------|
D---------------------------------------12-10---7-------|

Thats it :D
            
Hard to play? Try these video lessons and learn fast. | Correct




comments powered by Disqus
↑ Back to top | Tablatures and chords are parodies/interpretations of the original songs. You may use it for private study, scholarship, research or language learning purposes only