» » »

Manafest, No Plan B Tabs (ver.1)

Artists:  A B C D E F G H I J K L M N O P Q R S T U V W X Y Z # 

No Plan B Tabs (ver.1)

Manafest Tabs
 Rating:
4/5 (6 votes)
No Plan B lessons Tabs too difficult? Try these video lessons and learn fast
                Intro, which I believe another guitar is playing during the chorus

|-----------------------------------------------------------------------|
|-----------------------------------------------------------------------|
|-----------------------------------------------------------------------|
|--0-0h5--7-7-7-5-5-5-7-7-0-0-0-0-0-0-0-0-0h5--7-7-7-5-5-5-7-7----------|
|---------------------------------------------------------------3-3-3-3-|
|-----------------------------------------------------------------------|

|--------|
|--------|
|--------|
|--------|
|--------|
|--5-5-5-|

|-------------------------------------------------------------|
|-------------------------------------------------------------|
|-------------------------------------------------------------|
|--7-7-7-5-5-5-7-7-0-0-0-0-0-0-0-0h5--7-7-7-5-5-5-7-7---------|
|-----------------------------------------------------3-3-3-3-|
|-------------------------------------------------------------|

|--------|
|--------|
|--------|
|--------|
|--------|
|--1-1-1-|

Main Riff

|----------------------|
|----------------------|
|----------------------|
|----------------------| x3
|----------------------|
|--0-0-5*--5*--0-5*-5*-|

Fourth time playing main riff

|-------------------------|
|-------------------------|
|-------------------------|
|-------------------------|
|-------------------------|
|--0-0-5*--5*--0-5*5*5*5--|


Chorus

|--------------------------------------------------------------|
|--------------------------------------------------------------|
|--------------------------------------------------------------|
|--0-0-0-0-0-0-0-0-8-8-8-8-8-8-3-3-3-3-3-3-3-3-3-3-3-3-5--5--5-|
|--0-0-0-0-0-0-0-0-8-8-8-8-8-8-3-3-3-3-3-3-3-3-3-3-3-3-5--5--5-|
|--0-0-0-0-0-0-0-0-8-8-8-8-8-8-3-3-3-3-3-3-3-3-3-3-3-3-5--5--5-|

|------------------------------------------------------------------|
|------------------------------------------------------------------|
|------------------------------------------------------------------|
|--0-0-0-0-0-0-0-0-8-8-8-8-8-8-8-8-3-3-3-3-3-3-3-3-3-3-3-3-1--1--1-|
|--0-0-0-0-0-0-0-0-8-8-8-8-8-8-8-8-3-3-3-3-3-3-3-3-3-3-3-3-1--1--1-|
|--0-0-0-0-0-0-0-0-8-8-8-8-8-8-8-8-3-3-3-3-3-3-3-3-3-3-3-3-1--1--1-|

At the end of the chorus

|----------------------------------|
|----------------------------------|
|----------------------------------|
|--/8-8-8-8-8-8-8-8-8-8-8-8-8-8-8\-|
|--/8-8-8-8-8-8-8-8-8-8-8-8-8-8-8\-|
|--/8-8-8-8-8-8-8-8-8-8-8-8-8-8-8\-|

Bridge, palm muted single notes are twice as fast as the chorus

|------------------------------------------------------------------|
|------------------------------------------------------------------|
|------------------------------------------------------------------|
|------------------------------------------------------------------|
|------------------------------------------------------------------|
|--8-8-8-8-8-8-8-8-8-8-8-8-8-8-8-8-7-7-7-7-7-7-7-7-7-7-7-7-7-7-7-7-|
pm................................................................

|--------------------------------------------------------------------------|
|--------------------------------------------------------------------------|
|--------------------------------------------------------------------------|
|--------------------------------------------------------------------------|
|--------------------------------------------------------------------------|
|--10-10-10-10-10-10-10-10-10-10-10-10-10-10-10-10-12-12-12-12-12-12-12-12-|
pm........................................................................

|----------------------------------------------------------------------------|
|----------------------------------------------------------------------------|
|----------------------------------------------------------------------------|
|----------------------------------------------------------------------------|
|----------------------------------------------------------------------------|
|-12--10--7--8-8-8-8-8-8-8-8-8-8-8-8-8-8-8-8-7-7-7-7-7-7-7-7-7-7-7-7-7-7-7-7-|
             pm.............................................................

Beginning of the last chorus

|---------------------------------------------------------------------|
|---------------------------------------------------------------------|
|---------------------------------------------------------------------|
|--5--5-5-5-5-5-5-5-5-5-5-5-5-5-5-0-0------------0-0----------5--5--5-|
|--5--5-5-5-5-5-5-5-5-5-5-5-5-5-5-0-0------------0-0----------5--5--5-|
|--5--5-5-5-5-5-5-5-5-5-5-5-5-5-5-0-0------------0-0----------5--5--5-|
      pm.........

And that pretty much sums it up, hope you guys enjoyed! Also, be sure to check out my 

See ya!
            
Submit corrections

comments powered by Disqus
↑ Back to top | Manafest Tabs for No Plan B. Lyrics for acoustic guitar and electric guitar. Tablatures and chords are parodies/interpretations of the original songs. You may use it for private study, scholarship, research or language learning purposes only