>
 >
Fire In The Kitchen

Fire In The Kitchen Guitar Tabs

Manafest - Fire In The Kitchen chords, tabs, tablatures, lyrics

Guitar lessons | Add/correct | Request | Top 50 tabs Artists:  A B C D E F G H I J K L M N O P Q R S T U V W X Y Z 0-9

Fire In The Kitchen Guitar Tabs – Manafest

CD, Sheet music, Poster

Do you like Fire In The Kitchen? Share with your friends now
Tabs
----------------------------------------------------------------------------
                             Fire in the Kitchen
                                 Manafest
----------------------------------------------------------------------------

Hello, I just wanted to let you know that in the Chorus, I feel like a hear 3 guitars
off, but realize they only have 2, so Iím going to put 2 guitars out and if a majority of
guys think I need the 3rd guitar then Iíll put it in. Other than that, this is a great 
with very catchy lyrics, (along with guitar). Oh, sorry for the sloppiness. Enjoy!

Username: dkm817 (same on X box live)

Guitar 1 Rhythmic (C G C F A D)
Guitar 2 Lead     (C G C F A D)

Intro

Guitar 1
D-----------------------------------------------------------------------|
A-----------------------------------------------------------------------|
F-x-10--10--13--13--6---6---3---3-x-10--10--13--13--6---6-x-x-x-x-x-x-x-|
C-x-10--10--13--13--6---6---3---3-x-10--10--13--13--6---6-x-x-x-x-x-x-x-|
G-x-8---8---11--11--4---4---1---1-x-8---8---11--11--4---4-x-x-x-x-x-x-x-|
C-----------------------------------------------------------------------|

Verse

Guitar 1 & 2
D-------------------------------------------------------------------|
A-------------------------------------------------------------------|
F-x-10--10--13--13--6---6---3---3-x-10--10--13--13--6---6-x-3---3-x-|
C-x-10--10--13--13--6---6---3---3-x-10--10--13--13--6---6-x-3---3-x-|
G-x-8---8---11--11--4---4---1---1-x-8---8---11--11--4---4-x-1---1-x-|
C-------------------------------------------------------------------|

Guitar 1 & 2
D-----------------------------------------------------------------------|
A-----------------------------------------------------------------------|
F-x-10--10--13--13--6---6---3---3-x-10--10--13--13--6---6-x-x-x-x-x-x-x-|
C-x-10--10--13--13--6---6---3---3-x-10--10--13--13--6---6-x-x-x-x-x-x-x-|
G-x-8---8---11--11--4---4---1---1-x-8---8---11--11--4---4-x-x-x-x-x-x-x-|
C-----------------------------------------------------------------------|

Guitar 1
D-------------------------------------------------------------------|
A-------------------------------------------------------------------|
F-x-10--10--13--13--6---6---3---3-x-10--10--13--13--6---6-x-3---3-x-|
C-x-10--10--13--13--6---6---3---3-x-10--10--13--13--6---6-x-3---3-x-|
G-x-8---8---11--11--4---4---1---1-x-8---8---11--11--4---4-x-1---1-x-|
C-------------------------------------------------------------------|

Guitar 2
D------------------------------------------------------------------|
A-------------------10~~--11~~----------------------10~-11~~~~~----|
F-13-10-10-13-10-10---------------13-10-10-13-10-10----------------|
C------------------------------------------------------------------|
G------------------------------------------------------------------|
C------------------------------------------------------------------|

Guitar 1
D------------------------------------------------------------------|
A------------------------------------------------------------------|
F-x-10--10--13--13--6---6---3---3-x-10--10--13--13--6---6----x-----|
C-x-10--10--13--13--6---6---3---3-x-10--10--13--13--6---6----x-----|
G-x-8---8---11--11--4---4---1---1-x-8---8---11--11--4---4----x-----|
C--------------------------------------------------------------8b~-|

Guitar 2
D------------------------------------------------------------------|
A-------------------10~~--11~~----------------------10~-11~~~~~----|
F-13-10-10-13-10-10---------------13-10-10-13-10-10----------------|
C------------------------------------------------------------------|
G------------------------------------------------------------------|
C------------------------------------------------------------------|

Pre Chorus

Guitar 1
D-------------------------------------------------------------------------------|
A-------------------------------------------------------------------------------|
F-------------------------------------------------------------------------------|
C-11---11---11---11---11---11---11---11~~-10---10---10---10---10---10---10---10-|
G-11---11---11---11---11---11---11---11~~-10---10---10---10---10---10---10---10-|
C-11---11---11---11---11---11---11---11~~-10---10---10---10---10---10---10---10-|
Pm.    .    .    .    .    .    .         .    .    .    .    .    .    .

Guitar 2
D-------------------------------------------------------------------------------|
A-------------------------------------------------------------------------------|
F-10-10-10-10-10-10-10-10-10-10-10-10-10~-9--9--9--9--9--9--9--9--9--9--9--9--9-|
C-------------------------------------------------------------------------------|
G-------------------------------------------------------------------------------|
C-------------------------------------------------------------------------------|
Pm.  .  .  .  .  .  .  .  .  .  .  .      .  .  .  .  .  .  .  .  .  .  .  .

Guitar 1
D----------------------------------------------------------------------|
A----------------------------------------------------------------------|
F----------------------------------------------------------------------|
C-8----8----8----8----8----8----8----8~~~------------------------x-x-x-|
G-8----8----8----8----8----8----8----8~~~------------------------x-x-x-|
C-8----8----8----8----8----8----8----8~~~-5~~~/11~~-10~~~~~~~~~~-x-x-x-|
Pm.    .    .    .    .    .    .

Guitar 2
D----------------------------------------------------------------------|
A----------------------------------------------------------------------|
F-6--6--6--6--6--6--6--6--6--6--6--6--6~~-15~~-13~~-12~~~~-x-x-x-x-x-x-|
C----------------------------------------------------------x-x-x-x-x-x-|
G----------------------------------------------------------x-x-x-x-x-x-|
C----------------------------------------------------------------------|
pm.  .  .  .  .  .  .  .  .  .  .  .

Guitar 1
D----------------------------------------------------------------|
A----------------------------------------------------------------|
F-----------------6~~-6~~-3~~-3~~-----------------6~~-6~~--x-----|
C-3~~-3~~-6~~-6~~-6~~-6~~-3~~-3~~-3~~-3~~-6~~-6~~-6~~-6~~--x-----|
G-3~~-3~~-6~~-6~~-4~~-4~~-1~~-1~~-3~~-3~~-6~~-6~~-4~~-4~~--x-----|
C-3~~-3~~-6~~-6~~-----------------3~~-3~~-6~~-6~~------------8b~-|

Guitar 2
D----------------------------------------------------------------|
A----------------------------------------------------------------|
F-10~-10~-13~-13~-6~~-6~~-3~~-3~~-10~-10~-13~-13~-6~~-6~~--x-----|
C-10~-10~-13~-13~-6~~-6~~-3~~-3~~-10~-10~-13~-13~-6~~-6~~--x-----|
G-8~~-8~~-11~-11~-4~~-4~~-1~~-1~~-8~~-8~~-11~-11~-4~~-4~~--x-----|
C------------------------------------------------------------8b~-|

Guitar 1
D-----------------------------------------------------------------|
A-----------------------------------------------------------------|
F-----------------6~~-6~~-3~~-3~~-----------------6~~-6~~--x------|
C-3~~-3~~-6~~-6~~-6~~-6~~-3~~-3~~-3~~-3~~-6~~-6~~-6~~-6~~--x-8~~~-|
G-3~~-3~~-6~~-6~~-4~~-4~~-1~~-1~~-3~~-3~~-6~~-6~~-4~~-4~~--x-8~~~-|
C-3~~-3~~-6~~-6~~-----------------3~~-3~~-6~~-6~~------------8~~~-|

Guitar 2
D-----------------------------------------------------------------|
A-----------------------------------------------------------------|
F-10~-10~-13~-13~-6~~-6~~-3~~-3~~-10~-10~-13~-13~-6~~-6~~--x------|
C-10~-10~-13~-13~-6~~-6~~-3~~-3~~-10~-10~-13~-13~-6~~-6~~--x-8~~~-|
G-8~~-8~~-11~-11~-4~~-4~~-1~~-1~~-8~~-8~~-11~-11~-4~~-4~~--x-8~~~-|
C------------------------------------------------------------8~~~-|

Guitar 2
D-----------------------------------------------------------------|
A-----------------------------------------------------------------|
F-----------------6~~-6~~-3~~-3~~-----------------6~~-6~~--x------|
C-3~~-3~~-6~~-6~~-6~~-6~~-3~~-3~~-3~~-3~~-6~~-6~~-6~~-6~~--x-8~~~-|
G-3~~-3~~-6~~-6~~-4~~-4~~-1~~-1~~-3~~-3~~-6~~-6~~-4~~-4~~--x-8~~~-|
C-3~~-3~~-6~~-6~~-----------------3~~-3~~-6~~-6~~------------8~~~-|

Break Off 1

Guitar 1 & 2
D---------------------------------------------------------------------------|
A---------------------------------------------------------------------------|
F---------------------------------------------------------------------------|
C-x-x-x-x---x-x-x-x---x-x-x-x-x-x-x-x-x-x---x-x-x-x---x-x-x-x-x-x-x-x-x-x---|
G-x-x-x-x---x-x-x-x---x-x-x-x-x-x-x-x-x-x---x-x-x-x---x-x-x-x-x-x-x-x-x-x---|
C-x-x-x-x---x-x-x-x---x-x-x-x-x-x-x-x-x-x---x-x-x-x---x-x-x-x-x-x-x-x-x-x---|

Verse

Guitar 1 & 2
D-------------------------------------------------------------------|
A-------------------------------------------------------------------|
F-x-10--10--13--13--6---6---3---3-x-10--10--13--13--6---6-x-3---3-x-|
C-x-10--10--13--13--6---6---3---3-x-10--10--13--13--6---6-x-3---3-x-|
G-x-8---8---11--11--4---4---1---1-x-8---8---11--11--4---4-x-1---1-x-|
C-------------------------------------------------------------------|

Guitar 1 & 2
D-----------------------------------------------------------------------|
A-----------------------------------------------------------------------|
F-x-10--10--13--13--6---6---3---3-x-10--10--13--13--6---6-x-x-x-x-x-x-x-|
C-x-10--10--13--13--6---6---3---3-x-10--10--13--13--6---6-x-x-x-x-x-x-x-|
G-x-8---8---11--11--4---4---1---1-x-8---8---11--11--4---4-x-x-x-x-x-x-x-|
C-----------------------------------------------------------------------|

Guitar 1
D-------------------------------------------------------------------|
A-------------------------------------------------------------------|
F-x-10--10--13--13--6---6---3---3-x-10--10--13--13--6---6-x-3---3-x-|
C-x-10--10--13--13--6---6---3---3-x-10--10--13--13--6---6-x-3---3-x-|
G-x-8---8---11--11--4---4---1---1-x-8---8---11--11--4---4-x-1---1-x-|
C-------------------------------------------------------------------|

Guitar 2
D------------------------------------------------------------------|
A-------------------10~~--11~~----------------------10~-11~~~~~----|
F-13-10-10-13-10-10---------------13-10-10-13-10-10----------------|
C------------------------------------------------------------------|
G------------------------------------------------------------------|
C------------------------------------------------------------------|

Guitar 1
D------------------------------------------------------------------|
A------------------------------------------------------------------|
F-x-10--10--13--13--6---6---3---3-x-10--10--13--13--6---6----x-----|
C-x-10--10--13--13--6---6---3---3-x-10--10--13--13--6---6----x-----|
G-x-8---8---11--11--4---4---1---1-x-8---8---11--11--4---4----x-----|
C--------------------------------------------------------------8b~-|

Guitar 2
D------------------------------------------------------------------|
A-------------------10~~--11~~----------------------10~-11~~~~~----|
F-13-10-10-13-10-10---------------13-10-10-13-10-10----------------|
C------------------------------------------------------------------|
G------------------------------------------------------------------|
C------------------------------------------------------------------|

Pre Chorus

Guitar 1
D-------------------------------------------------------------------------------|
A-------------------------------------------------------------------------------|
F-------------------------------------------------------------------------------|
C-11---11---11---11---11---11---11---11~~-10---10---10---10---10---10---10---10-|
G-11---11---11---11---11---11---11---11~~-10---10---10---10---10---10---10---10-|
C-11---11---11---11---11---11---11---11~~-10---10---10---10---10---10---10---10-|
Pm.    .    .    .    .    .    .         .    .    .    .    .    .    .

Guitar 2
D-------------------------------------------------------------------------------|
A-------------------------------------------------------------------------------|
F-10-10-10-10-10-10-10-10-10-10-10-10-10~-9--9--9--9--9--9--9--9--9--9--9--9--9-|
C-------------------------------------------------------------------------------|
G-------------------------------------------------------------------------------|
C-------------------------------------------------------------------------------|
Pm.  .  .  .  .  .  .  .  .  .  .  .      .  .  .  .  .  .  .  .  .  .  .  .

Guitar 1
D----------------------------------------------------------------------|
A----------------------------------------------------------------------|
F----------------------------------------------------------------------|
C-8----8----8----8----8----8----8----8~~~------------------------x-x-x-|
G-8----8----8----8----8----8----8----8~~~------------------------x-x-x-|
C-8----8----8----8----8----8----8----8~~~-5~~~/11~~-10~~~~~~~~~~-x-x-x-|
Pm.    .    .    .    .    .    .

Guitar 2
D----------------------------------------------------------------------|
A----------------------------------------------------------------------|
F-6--6--6--6--6--6--6--6--6--6--6--6--6~~-15~~-13~~-12~~~~-x-x-x-x-x-x-|
C----------------------------------------------------------x-x-x-x-x-x-|
G----------------------------------------------------------x-x-x-x-x-x-|
C----------------------------------------------------------------------|
pm.  .  .  .  .  .  .  .  .  .  .  .

Guitar 1
D----------------------------------------------------------------|
A----------------------------------------------------------------|
F-----------------6~~-6~~-3~~-3~~-----------------6~~-6~~--x-----|
C-3~~-3~~-6~~-6~~-6~~-6~~-3~~-3~~-3~~-3~~-6~~-6~~-6~~-6~~--x-----|
G-3~~-3~~-6~~-6~~-4~~-4~~-1~~-1~~-3~~-3~~-6~~-6~~-4~~-4~~--x-----|
C-3~~-3~~-6~~-6~~-----------------3~~-3~~-6~~-6~~------------8b~-|


Guitar 2
D----------------------------------------------------------------|
A----------------------------------------------------------------|
F-10~-10~-13~-13~-6~~-6~~-3~~-3~~-10~-10~-13~-13~-6~~-6~~--x-----|
C-10~-10~-13~-13~-6~~-6~~-3~~-3~~-10~-10~-13~-13~-6~~-6~~--x-----|
G-8~~-8~~-11~-11~-4~~-4~~-1~~-1~~-8~~-8~~-11~-11~-4~~-4~~--x-----|
C------------------------------------------------------------8b~-|

Guitar 1
D---------------------------------|
A---------------------------------|
F-----------------6~~-6~~---------|
C-3~~-3~~-6~~-6~~-6~~-6~~---------|
G-3~~-3~~-6~~-6~~-4~~-4~~-4~------|
C-3~~-3~~-6~~-6~~------------8-6~-|

Guitar 2
D---------------------------------|
A---------------------------------|
F-10~-10~-13~-13~-6~~-6~~-6~------|
C-10~-10~-13~-13~-6~~-6~~----8-6~-|
G-8~~-8~~-11~-11~-4~~-4~~---------|
C---------------------------------|

Guitar 1
D---------------------------------------------------|
A---------------------------------------------------|
F---------------------------------------------------|
C---------------------------------------------------|
G---------------------------------------------------|
C-5~~-5-7-7-7-8-8-8-9-9-9-10-10-10-12-12-12-13~-4~~-|

Guitar 2
D---------------------------------------------------|
A---------------------------------------------------|
F---------------------------------------------------|
C-5~~-5-7-7-7-8-8-8-9-9-9-10-10-10-12-12-12-13~-4~~-|
G---------------------------------------------------|
C---------------------------------------------------|

Break Off 2

Guitar 1
D----------------------------------------------------------------|
A----------------------------------------------------------------|
F-----------------6~~-6~~-3~~-3~~-----------------6~~-6~~--x-----|
C-3~~-3~~-6~~-6~~-6~~-6~~-3~~-3~~-3~~-3~~-6~~-6~~-6~~-6~~--x-----|
G-3~~-3~~-6~~-6~~-4~~-4~~-1~~-1~~-3~~-3~~-6~~-6~~-4~~-4~~--x-----|
C-3~~-3~~-6~~-6~~-----------------3~~-3~~-6~~-6~~------------8b~-|

Guitar 2
D----------------------------------------------------------------|
A----------------------------------------------------------------|
F-10~-10~-13~-13~-6~~-6~~-3~~-3~~-10~-10~-13~-13~-6~~-6~~--x-----|
C-10~-10~-13~-13~-6~~-6~~-3~~-3~~-10~-10~-13~-13~-6~~-6~~--x-----|
G-8~~-8~~-11~-11~-4~~-4~~-1~~-1~~-8~~-8~~-11~-11~-4~~-4~~--x-----|
C------------------------------------------------------------8b~-|

Bridge

Guitar 1
D----------------------------------------------------------------|
A----------------------------------------------------------------|
F-----------------6~~-6~~-3~~-3~~-----------------6~~-6~~--x-----|
C-3~~-3~~-6~~-6~~-6~~-6~~-3~~-3~~-3~~-3~~-6~~-6~~-6~~-6~~--x-----|
G-3~~-3~~-6~~-6~~-4~~-4~~-1~~-1~~-3~~-3~~-6~~-6~~-4~~-4~~--x-----|
C-3~~-3~~-6~~-6~~-----------------3~~-3~~-6~~-6~~------------8b~-|

Guitar 2
D----------------------------------------|
A-----------------11-9-9-11-9-9-11~~-9~~-|
F-----10~~~~\-13~\-----------------------|
C----------------------------------------|
G----------------------------------------|
C----------------------------------------|

Guitar 2 continued
D----------------------------------------|
A-----------------11-9-9-11-9-9----------|
F-----10~~~~\-13~\-----------------x-----|
C----------------------------------x-----|
G----------------------------------x-----|
C------------------------------------8b~-|

Guitar 1
D---------------------------------|
A---------------------------------|
F-----------------6~~-6~~-6~------|
C-3~~-3~~-6~~-6~~-6~~-6~~----8-6~-|
G-3~~-3~~-6~~-6~~-4~~-4~~---------|
C-3~~-3~~-6~~-6~~-----------------|

Guitar 2
D-----14~~~~\-17~\----------------------|
A---------------------------------------|
F-----------------10-8-5-10-8-5-6~------|
C----------------------------------8-6~-|
G---------------------------------------|
C---------------------------------------|

Guitar 1
D---------------------------------------------------|
A---------------------------------------------------|
F---------------------------------------------------|
C---------------------------------------------------|
G---------------------------------------------------|
C-5~~-5-7-7-7-8-8-8-9-9-9-10-10-10-12-12-12-13~-4~~-|

Guitar 2
D---------------------------------------------------|
A---------------------------------------------------|
F---------------------------------------------------|
C-5~~-5-7-7-7-8-8-8-9-9-9-10-10-10-12-12-12-13~-4~~-|
G---------------------------------------------------|
C---------------------------------------------------|

Interlude

Guitar 1 & 2
D---------------------------------------------------------------------------|
A---------------------------------------------------------------------------|
F---------------------------------------------------------------------------|
C-x-x-x-x---x-x-x-x---x-x-x-x-x-x-x-x-x-x---x-x-x-x---x-x-x-x-x-x-x-x-x-x---|
G-x-x-x-x---x-x-x-x---x-x-x-x-x-x-x-x-x-x---x-x-x-x---x-x-x-x-x-x-x-x-x-x---|
C-x-x-x-x---x-x-x-x---x-x-x-x-x-x-x-x-x-x---x-x-x-x---x-x-x-x-x-x-x-x-x-x---|

Guitar 1 & 2
D---------------------------------------------------------------------------|
A---------------------------------------------------------------------------|
F---------------------------------------------------------------------------|
C---------------------------------------------------------------------------|
G---------------------------------------------------------------------------|
C---------------------------------------------------------------------------|

Chorus

Guitar 1
D----------------------------------------------------------------|
A----------------------------------------------------------------|
F-----------------6~~-6~~-3~~-3~~-----------------6~~-6~~--x-----|
C-3~~-3~~-6~~-6~~-6~~-6~~-3~~-3~~-3~~-3~~-6~~-6~~-6~~-6~~--x-----|
G-3~~-3~~-6~~-6~~-4~~-4~~-1~~-1~~-3~~-3~~-6~~-6~~-4~~-4~~--x-----|
C-3~~-3~~-6~~-6~~-----------------3~~-3~~-6~~-6~~------------8b~-|


Guitar 2
D----------------------------------------------------------------|
A----------------------------------------------------------------|
F-10~-10~-13~-13~-6~~-6~~-3~~-3~~-10~-10~-13~-13~-6~~-6~~--x-----|
C-10~-10~-13~-13~-6~~-6~~-3~~-3~~-10~-10~-13~-13~-6~~-6~~--x-----|
G-8~~-8~~-11~-11~-4~~-4~~-1~~-1~~-8~~-8~~-11~-11~-4~~-4~~--x-----|
C------------------------------------------------------------8b~-|

Guitar 1
D---------------------------------|
A---------------------------------|
F-----------------6~~-6~~---------|
C-3~~-3~~-6~~-6~~-6~~-6~~---------|
G-3~~-3~~-6~~-6~~-4~~-4~~-4~------|
C-3~~-3~~-6~~-6~~------------8-6~-|

Guitar 2
D---------------------------------|
A---------------------------------|
F-10~-10~-13~-13~-6~~-6~~-6~------|
C-10~-10~-13~-13~-6~~-6~~----8-6~-|
G-8~~-8~~-11~-11~-4~~-4~~---------|
C---------------------------------|

Guitar 1
D---------------------------------------------------|
A---------------------------------------------------|
F---------------------------------------------------|
C---------------------------------------------------|
G---------------------------------------------------|
C-5~~-5-7-7-7-8-8-8-9-9-9-10-10-10-12-12-12-13~-4~~-|

Guitar 2
D---------------------------------------------------|
A---------------------------------------------------|
F---------------------------------------------------|
C-5~~-5-7-7-7-8-8-8-9-9-9-10-10-10-12-12-12-13~-4~~-|
G---------------------------------------------------|
C---------------------------------------------------|

Outro

Guitar 1
D----------------------------------------------------------------|
A----------------------------------------------------------------|
F-----------------6~~-6~~-3~~-3~~-----------------6~~-6~~--------|
C-3~~-3~~-6~~-6~~-6~~-6~~-3~~-3~~-3~~-3~~-6~~-6~~-6~~-6~~--------|
G-3~~-3~~-6~~-6~~-4~~-4~~-1~~-1~~-3~~-3~~-6~~-6~~-4~~-4~~--------|
C-3~~-3~~-6~~-6~~-----------------3~~-3~~-6~~-6~~----------------|


Guitar 2
D----------------------------------------------------------------|
A----------------------------------------------------------------|
F-10~-10~-13~-13~-6~~-6~~-3~~-3~~-10~-10~-13~-13~-6~~-6~~--------|
C-10~-10~-13~-13~-6~~-6~~-3~~-3~~-10~-10~-13~-13~-6~~-6~~--------|
G-8~~-8~~-11~-11~-4~~-4~~-1~~-1~~-8~~-8~~-11~-11~-4~~-4~~--------|
C----------------------------------------------------------------|

Tab Legend
h  -  hammer-on
p  -  pull-off
/  -  slide up
\  -  slide down
ps/-  pickslide up
ps\-  pickslide down
~  -  let ring
pm.-  palm mute
b  -  bend
r  -  return from bend
*  -  harmonic
x  -  dead note

There you go. Just wanted to point out again that this was very sloppy and most (if not
of my tabs are of better quality. But a break from tabs can change you. Email me if you
me to make tabs of songs that 1. Havenít been made or 2. Are not completely finished. 
oh and one last thing... ROCK OUT!!!!





Comments


Popular Manafest tabs & chords
Live On Bass Tabs
Human Chords
Never Let You Go Chords
Avalanche Tabs
Human Tabs
Live On Intro Tabs
Live On Intro 1 Tabs
No Plan B 2 Tabs
Human Ukulele
Never Let You Go Ukulele


Song lyrics



↑ Back to top | Tablatures and chords are parodies/interpretations of the original songs. You may use it for private study, scholarship, research or language learning purposes only
© 2014 AZChords.com Contact us | Privacy policy | DMCA | Add/correct tabs | Request tabs | Top 50 tabs