>
 >
Avalanche

Avalanche Guitar Tabs

Manafest - Avalanche chords, tabs, tablatures, lyrics

Guitar lessons | Add/correct | Request | Top 50 tabs Artists:  A B C D E F G H I J K L M N O P Q R S T U V W X Y Z 0-9

Avalanche Guitar Tabs – Manafest

CD, Sheet music, Poster

Do you like Avalanche? Share with your friends now
TabsTabs v2
-------------------------------------------------------------------------------
                        Avalanche--Manafest
-------------------------------------------------------------------------------

Tuning: half step down (d#,g#,c#,f#,a#,high d#); but as I am a lazy idiot, I am 
not going to change the little letters.

This song is super easy, but just in case, here is the guitar tab.

Intro/verse part 1 (for intro, play once)
e|--------------------|------------------------------------------------------|
B|--------play 2x-----|------------------------------------------------------|
G|------------------4-|------------------------------------------------------|
D|--------------------|------------------------222444------------------------|
A|--------------------|------------------------------222000------------------|
E|--p.m.(022222222)---|---- p.m.(022222222)-4--------------------------------|
Verse part 2
e|--------------------|------------------------------------------------------|
B|--------play 2x-----|------------------------------------------------------|
G|------------------4-|-4-4-4-4-7-7-7-7--------------------------------------|
D|--------------------|-4-4-4-4-7-7-7-7--------------------------------------|
A|--------------------|-2-2-2-2-5-5-5-5--------------------------------------|
E|--p.m.(022222222)---|------------------------------------------------------|
Chorus
e|---------------------------------------------------------------------------|
B|---------------------------------------------------------------------------|
G|-------------------7-7-7-7-4-4-4-------------------7-7-7-7-2---4---4-6-----|
D|-----4-4-4-7-7-7-7-7-7-7-7-4-4-4-2-4-4-4-4-7-7-7-7-7-7-7-7-4---4---4-6-----|
A|-----4-4-4-7-7-7-7-5-5-5-5-2-2-2-2-4-4-4-4-7-7-7-7-5-5-5-5-2-0h2-0h2-4-----|
E|-0/2-2-2-2-5-5-5-5---------------0-2-2-2-2-5-5-5-5-------------------------|

e|---------------------------------------------------------------------------|
B|---------------------------------------------------------------------------|
G|---------------------------------------------------------------------------|
D|-7-7-7-7-9-9-9-9-11-11-11-11-7-2-4-----------------------------------------|
A|-5-5-5-5-7-7-7-7-9--9--9--9--7-2-4-(let ring into verse intro)-------------|
E|-----------------------------5-0-2-----------------------------------------|
Bridge (You gotta be what I was…)
e|---------------------------------------------------------------------------|
B|---------------------------------------------------------------------------|
G|---------------------------------------------------------------------------|
D|-------------------------------222444--------------------------------------|
A|----p.m.-----------------------------222000--------p.m.--------2(hold)-5---|
E|(222222222-222222222-222222222)-----------(222222222-222222222)------------|
Post-chorus/Outro
e|---------------------------------------------------------------------------|
B|---------------------------------------------------------------------------|
G|-------6-------6-------6--------------------6-------6-------6--------------|
D|-4-4-4-6-4-4-4-6-4-4-4-6-222444-------4-4-4-6-4-4-4-6-4-4-4-6--------------|
A|-4-4-4-4-4-4-4-4-4-4-4-4-------222000-4-4-4-4-4-4-4-4-4-4-4-4--------------|
E|-2-2-2---2-2-2---2-2-2----------------2-2-2---2-2-2---2-2-2---5--0---------|
Note: When I write p.m. with () parentheses, it means to palm mute.

************************************

| /   slide up
| \   slide down
| h   hammer-on
| p   pull-off
| ~   vibrato
| +   harmonic
| x   Mute note
| b   Bend
| pb  Pre-bend
| br  Bend release
| pbr Pre-bend release
| brb Bend release bend

************************************
Song structure:
Intro
Verse (verses are made up of verse part 1, then part 2, then part 1, then part 2)
Chorus
Intro
Verse
Chorus
Post-chorus
Bridge
Chorus
Outro

Hope you like it. Enjoy!
END





Comments


Popular Manafest tabs & chords
Every Time You Run Chords
Never Let You Go Chords
Bring The Ruckus Tabs
Human Tabs
Impossible Tabs
Live On Intro Tabs
No Plan B Tabs
No Plan B 2 Tabs
Human Ukulele
Never Let You Go Ukulele


Song lyrics



↑ Back to top | Tablatures and chords are parodies/interpretations of the original songs. You may use it for private study, scholarship, research or language learning purposes only
© 2014 AZChords.com Contact us | Privacy policy | DMCA | Add/correct tabs | Request tabs | Top 50 tabs