» » »

Vivir Sin Aire Tabs (ver.6)

Artists:  A B C D E F G H I J K L M N O P Q R S T U V W X Y Z # 

Vivir Sin Aire Tabs (ver.6)

Mana
Rating:
0/5 (0 votes)

Tabs too difficult? Try these video lessons and learn fast.
                 Intro

e|--3-----------5---2------5------0-----3------2-----3-----|
B|--3-------3------------3---3----1---1---1----3-3/5---5-3-|
G|--0-----0---0----------------2--0---------0--2-----------|
D|------0--------------0----------2-2----------0-----------|
A|----2---------5---2-------------3------------------------|
E|--3------------------------------------------------------|

e|--------------5---2------5------0-----3-332200-----------|
B|----------3------------3---3----1---1---33321133-0-------|
G|--------0---0----------------2--0-------------44-0-------|
D|------0--------------0----------2-2----------------------|
A|----2---------5---2-------------3------------------------|
E|--3------------------------------------------------------|


Verso

Riff 1

e|--------3-------------------------------3-0-----------2h3-2-2h3-------|
B|------3---3-------------3-5-3---------1-----1-------3-----------------|
G|----0-------0---------4-------4-----0---------0---2-------------------|
D|--------------0-----4---------------------------0---------------------|
A|------------------2-------------2-3-----------------------------------|
E|--3-------------3-----------------------------------------------------|

Riff 2

e|--3/5-553-3-2--2-2h3-2-0-----2--3-2-3-------|
B|--3/5-553-3-3-3--3---3-1-------3-3-3--------|
G|---------------------------2/4--------------|
D|--------------------------------------------|
A|--------------------------------------------|
E|--------------------------------------------|

Riff 3
e|-----3------33/5-53-------------------------|
B|--------3-5-33/5-53-33/5-5-553-3331p0-0-----|
G|--2/4---4-5----------44/5-5-554-4442p0-0----|
D|--------------------------------------------|
A|--------------------------------------------|
E|--------------------------------------------|

Estructura

Riff 1
Riff 2
Riff 1
Riff 3
Riff 1
Riff 2
Riff 1
Riff 3


Pre-Coro

e|--------0------------------0--------------0-------------0-----------|
B|------1----1---1-----3-------0--------------3---------1---3--1--3---|
G|----0--------0-----0---2/4-----2--------0-----0-----0---------------|
D|-----------------0--------------2-----4-----------------------------|
A|--3---------------------------------2-----------2-3-----------------|
E|----------------------------------0---------------------------------|


e|-------3--------------3----------2--2-3-5-3-2h3p2---2----------------|
B|------3----3---3-----3----3---3---3----------------5---5-3-1---------|
G|----0--------0-----0--------0-----2--------------------------4-2-0---|
D|----------------------------------0--------------------------------4-|
A|---------------------------------------------------------------------|
E|--3--------------3---------------------------------------------------|

CORO

e|--------3---------------3--0-------------3---------------------------|
B|------3---3-----------1------1---------3---3---3---3-------3---------|
G|----0-------0-------0----------0-----0-------0-------0-------0-------|
D|--------------2----------------------------------------0-------0-----|
A|----------------2-3--------------------------------------------------|
E|--0------------------------------2-3-------------3-------2-------0---|

   Em              C               D
E----------0---------------0---------------2-----3-----3---2----------|
B------------3-----------1---1---------3-----3-----3-----3---3---3----|
G--------0-----0-------0-------0-----2---2-----2-----2---------2------|
D------4-------------2-----------2-0----------------------------------|
A----2-----------2-3--------------------------------------------------|
E--0------------------------------------------------------------------|

Intro


Riff 4

e|-----------------------------------------|
B|--0-1-3-5-7-8-5--5-5-3-3-1-0-------------|
G|-----------------------------------------|
D|--0-2-4-5-7-9-5--5-5-4-4-2-0-------------|
A|-----------------------------------------|
E|-----------------------------------------|

Riff 5

e|---7---5---3-2-3--0------2--3-2-3--------|
B|---------------------------3-3-3---------|
G|--/7--/5--/4-2-4--0--2/4-----------------|
D|-----------------------------------------|
A|-----------------------------------------|
E|-----------------------------------------|

Riff 6

e|-----------------------------------------|
B|--0-1-3-5-7-8-5--5-5-3-3-7-8-------------|
G|-----------------------------------------|
D|--0-2-4-5-7-9-5--5-5-4-4-7-9-------------|
A|-----------------------------------------|
E|-----------------------------------------|
Riff 7

e|---7---5---3-5-7-5-3-2-00-----2--3-2-3---|
B|--------------------------------3-3-3----|
G|--/7--/5--/4-5-7-5-4-2-00--2/4-----------|
A|-----------------------------------------|
E|-----------------------------------------|

Verso 2

Riff 1
Riff 3
Riff 1
Riff 5
Riff 1
Riff 6
Riff 1
Riff 7

Pre-Coro


e|--------3---------------3--0-------------3---------------------------|
B|------3---3-----------1------1---------3---3---3---3-------3---------|
G|----0-------0-------0----------0-----0-------0-------0-------0-------|
D|--------------2----------------------------------------0-------0-----|
A|----------------2-3--------------------------------------------------|
E|--0------------------------------2-3-------------3----(3)2----(2)0---|

e|----------0---------------0---------------2-----3-----3---2----------|
B|------------3-----------1---1---------3-----3-----3-----3---3---3----|
G|--------0-----0-------0-------0-----2---2-----2-----2---------2------|
D|------4-------------2-----------2-0----------------------------------|
A|----2-----------2-3--------------------------------------------------|
E|--0------------------------------------------------------------------|
                                   |________________________________|
                                                             |
El coro se toca en dos tiempos...en el segundo tiempo se toca esto...

e|----------2-------------------------|
B|------3-----3-----------------------|
G|----2---2---------------------------|
D|--0---------------------------------|
A|---------------------0--2-0---------|
E|---------------2--3---------3-2-0-0-|

En el coro, en el segundo tiempo...no deves tocar esto...
             |
             |
e|---------------------                  e|---7----5----3---------|
B|---3-------3---------                  B|-----------------------|
G|-----0-------0-------   sino esto      G|--/7---/5---/4---------|
D|-------0-------0-----                  D|-----------------------|
A|---------------------                  A|-----------------------|
E|-3----(3)2----(2)0---                  E|-----------------------|

e|--3-2-0------2-3-0--0---0--------------10----9----8----7-----------|
B|--3-3-1-3--3-3-3-1--1-3-1----------0------12---11---10---8---------|
G|--------4--4-2---0----4-0--------0-------------------------7-------|
D|-------------0----------2------0-----------------------------10-9~-|
A|------------------------3----2-------------------------------------|
E|---------------------------3---------------------------------------|
            
Tabs too difficult? Try these video lessons and learn fast.


comments powered by Disqus
↑ Back to top | Tablatures and chords are parodies/interpretations of the original songs. You may use it for private study, scholarship, research or language learning purposes only