» » »

Mana, Si No Te Hubieras Ido Tabs (ver.1)

Artists:  A B C D E F G H I J K L M N O P Q R S T U V W X Y Z # 

Si No Te Hubieras Ido Tabs (ver.1)

Mana Tabs
 Rating:
4/5 (4 votes)
Si No Te Hubieras Ido lessons Tabs too difficult? Try these video lessons and learn fast
                Si no te hubieras ido_Mana
Transcripcion: MauriCio PraDO

La transcripcion no esta del todo completa pero si la sacan bien van a tener idea
de mas o menos cmo se toca, espero q les guste.


Intro:

e----------------------------|
b-----7---8---8-7-—-7--------|
G-5h7---7---7-----7---9------|
D----------------------------|   x2
A----------------------------|
E----------------------------|

e-----------------------------|
b-----7---8---8-7-—-7------10-|
G-5h7---7---7-----7---9h10----|
D-----------------------------|
A-----------------------------|
E-----------------------------|

e----------------------------|
b-----7---8---8-7-—-7--------|
G-5h7---7---7-----7---9------|
D----------------------------|
A----------------------------|
E----------------------------|

Verso:
Bm                         G            A
Te extraño mas que nunca y no se que hacer        (rif1)
Bm                  G            A
Despierto y te recuerdo al amanecer               (rif2)
F#m          Bm
Espera otro dia por vivir sin ti                  (rif3)
  Bm                G                   A
El espejo no miente me veo tan diferente
                         (Bm)         (G)          (rif4)
Me haces falta tu

Verso2:
  Bm                G        A     (Bm)    (G)
La gente pasa siempre tan igual                     (rif4)
  Bm                G        A      (Bm)    (G)
El ritmo de La vida me parece mal                   (rif5)
F#m           Bm
Era tan diferente cuando estabas tu                  (rif6)
Bm                     G          A
Si q era diferente cuando estabas tu                  (rif7)

Coro:
Bm                      G         A
No hay nada mas difisil que vivir sin ti             (rif2-rif5)
Bm                      G         A
sufriendo em La espera de verte llegar                (rif2-rif5)
Bm                      G         A
El frio de mi cuerpo pregunta por ti
F#m          Bm         A Bm G
Y no se donde estas
F#m                     G         A     (Bm)  (G)
si no te hubieras ido seria tan feliz

e----------------------------|
b-----7---8---8-7-—----------|
G-5h7---7---7----------------|
D----------------------------|
A----------------------------|
E----------------------------|

e----------------------------|
b-----7---8---8-7-—-7--------|
G-5h7---7---7-----7---9------|
D----------------------------|
A----------------------------|
E----------------------------|

Verso2
Coro

e----------------------------|
b-----7---8---8-7-—-7--------|
G-5h7---7---7-----7---9------|
D----------------------------|   x2
A----------------------------|
E----------------------------|

(rif1)
 Bm                   G        A
e-------2-----3-------2-0--------|
b---2-3---3-0---3-3h5------2-1h3-|
G-2------------------------------|
D--------------------------------|
A--------------------------------|
E--------------------------------|

(rif2)
Bm                   G        A
e-------2-----3------2-----------|
b---2-3---3-0---3-5----3-3h5-----|
G-2--------------------------4h6-|
D--------------------------------|
A--------------------------------|
E--------------------------------|

(rif3)
  A
e-------------------------------|
b---3-0-----3-------------------|
G-4-----0-3---3-1h4-------------|
D-------------------------------|
A-------------------------------|
E-------------------------------|

(rif4)
A
e-------2-2-0-------------------|
b---2-3-------2-1h3-------------|
G-2-----------------------------|
D-------------------------------|
A-------------------------------|
E-------------------------------|

(rif5)
(con distorcion)
e-3-3--2-2--0-0-----------------|
b-0-0--0-0--0-0-----------------|
G-------------------------------|
D-------------------------------|
A-------------------------------|
E-------------------------------|

(rif6)
  A
e----------------------3---2---0-|
b---3-0-----3--------3---2---1---|
G-4-----0-3---3-1h4--------------|
D--------------------------------|
A--------------------------------|
E--------------------------------|

(rif7)
(con distorcion)
e-2-2-3-3-2-2-2-2-3-3-2-2-0-----|
b-2-2---------2-2-----------5---|
G-------------------------------|
D-------------------------------|
A-------------------------------|
E-------------------------------|
            
Submit corrections

comments powered by Disqus
↑ Back to top | Mana Tabs for Si No Te Hubieras Ido. Lyrics for acoustic guitar and electric guitar. Tablatures and chords are parodies/interpretations of the original songs. You may use it for private study, scholarship, research or language learning purposes only