» » »

Mana, Pobre Juan Tabs (ver.1)

Artists:  A B C D E F G H I J K L M N O P Q R S T U V W X Y Z # 

Pobre Juan Tabs (ver.1)

Mana Tabs
 Rating:
4/5 (4 votes)
Pobre Juan lessons Tabs too difficult? Try these video lessons and learn fast
                e------2--------------0------------------------------|
b----4---4---------4----4---------4---------2--------|
g--4------------4---------------4---4-----3---3------|
d-----------------------------6---------4------------|
a---------------------------6------------------------|
E----------------------------------------------------|

e----------0------------------2-----0----------------|
b------0--------0---------2-----------0--------------|
g----1---1----1---1-----3---3----3-------------------|
d--2------------------4------------------------------|
a----------------------------------------------------|
E----------------------------------------------------|

Juan se lanzo marchandose al norte
iba en busca de una vida digna
cruzando Mexico por valles y por montes
iba Juan lleno de fe
La historia es que Juan se iba casar
con maria........

e------------------------------------------------------|
b-----9------------7-----------------------------------|
g---9---9-------8-----8----------12--------------------|
d------------9----------------12----12-----------------|
a-7------------------------10--------------------------|
E------------------------------------------------------|

embarazada
pero el no tenia ni un centavo

e------------------------------------------------------|
b-----9------------7-----------------------------------|
g---9---9-------8-----8--------------------------------|
d------------9-----------------------------------------|
a-7----------------------------------------------------|
E------------------------------------------------------|

ni un clavo que darle el.

e------2--------------0------------------------------|
b----4---4---------4----4---------4---------2--------|
g--4------------4---------------4---4-----3---3------|
d-----------------------------6---------4------------|
a---------------------------6------------------------|
E----------------------------------------------------|

e----------0------------------2-----0----------------|
b------0--------0---------2-----------0--------------|
g----1---1----1---1-----3---3----3-------------------|
d--2------------------4------------------------------|
a----------------------------------------------------|
E----------------------------------------------------|

pero este Juan iba muy decidido
y a la frontera el llego con todo el filo.
se conecto con el mero mayor de los coyotes
y la historia le conto.
mire usted que yo quiero cruzarme ya

e------------------------------------------------------|
b-----9------------7-----------------------------------|
g---9---9-------8-----8----------12--------------------|
d------------9----------------12----12-----------------|
a-7------------------------10--------------------------|
E------------------------------------------------------|
Repite 3 veces
            
Submit corrections

comments powered by Disqus
↑ Back to top | Mana Tabs for Pobre Juan. Lyrics for acoustic guitar and electric guitar. Tablatures and chords are parodies/interpretations of the original songs. You may use it for private study, scholarship, research or language learning purposes only