» » »

Mi Religion Bass tabs (ver.1)

Artists:  A B C D E F G H I J K L M N O P Q R S T U V W X Y Z # 

Mi Religion Bass tabs (ver.1)

Mana
Rating:
0/5 (0 votes)

Hard to play? Try these video lessons and learn fast.
                                                     By Mana

Credit Given To Mana
Greatest Band In The World
If You Cant PLay This You Should Not Be 
A Bassis Sound Right When Played


[E,A,D,G]  Standard Tuning

Hear It To Get Timing Might Seem Wrong If Not Played Right


E--2---0---0----------2---0---
A---4----2---2----------4---2-
D---------------000-------3---
G-----------------------------

Chorus
E--22---22---5--77--77--00-4-5555--4-2
A-------------------------------------

E--77---0-7777----------------------------5 hammer till----7
A--------------44--22 Keep On Till Change
D--------------------------------------
G--------------------------------------
         Fast         Fast
E--0000--2/4---5555---5/7--99999--0000--0--4-55555-4-2222
A--------------------------------------------------------
D--------------------------------------------------------
G--------------------------------------------------------

E--7--5--4-----------------------------------------------


End A----7-6-4-2 play with music Hear Music To Get Timings




         First Tab Ever so Please Hear Music For Timing Its Confusing But Easy If Played Right 
            
Hard to play? Try these video lessons and learn fast. | Correct




comments powered by Disqus
↑ Back to top | Tablatures and chords are parodies/interpretations of the original songs. You may use it for private study, scholarship, research or language learning purposes only