» » »

Justicia Tierra Y Libertad Tabs (ver.1)

Artists:  A B C D E F G H I J K L M N O P Q R S T U V W X Y Z # 

Justicia Tierra Y Libertad Tabs (ver.1)

Mana
Rating:
0/5 (0 votes)

Hard to play? Try these video lessons and learn fast.
                +-----------------------------------------------+
| Mana                                          |
| Justicia, tierra y libertad                   |
|                                               |
| Revolucion de Amor()                          |
+-------------------------------------------TAB-+

Evil Crow


I busted my soul, writting this tab, if you find another tab of this song
and its == is a copy, cuz i was listening to the song to write it, it is not perfect,
so i dont think anyone else has the same mistakes that i had. ;) ENjOY.


Intro : Acoustic Guitar       
e---------------------------------------5---------------------|
B-----------------------------------5-5---5-5-5-3-5-3---------|
G-----5-4-5----7--5---7--9-9-9-9------------------------------|
D--2----------------------------------------------------------|
A-------------------------------------------------------------|
E-------------------------------------------------------------| 

e-------------------------------|
B----3-------------3------------|
G--4---5---4-5-4-----5-4-2------|
D-------------------------------|
A-------------------------------|
E-------------------------------|

Pre-Verse  

Guitar 1: Electric Clean
   2x
e-------------------------------------------------------------|
B--10---10---10--10---10---10--6---6---6--8---8---8-----------|
G-----9----9--------9----9-------5---5------7---7-------------|
D-------------------------------------------------------------|
A-------------------------------------------------------------|
E-------------------------------------------------------------|

  On the 2nd round 
e---------------------8---------------------------------------|
B--10---10---10--12--------6---6---6--8---8---8---------------|
G-----9----9-----------------5---5------7---7-----------------|
D-------------------------------------------------------------|
A-------------------------------------------------------------|
E-------------------------------------------------------------|


Guitar 2: Acoustic Guitar this is player over Guitar 1
e------------3-------------------------------------------------------|
B----3-5-6-5---6-----5-6-5-3---6-5-3---------6-5--2-5-6-5-3-6-5-3----|
G--5---------------------------------5---4-5----------------------5--|
D--------------------------------------------------------------------|
A--------------------------------------------------------------------|
E--------------------------------------------------------------------|

e--------------------------------|
B--------------------------------|
G-2-4-5-2--2-5-4-2--2-2~~--------|
D--------------------------------|
A--------------------------------|
E--------------------------------|

 
Guitar 3: Distortion, is played on the 2nd round.
e---------------------7--8--10--8-7-----8h7---------12b--10h12-10------|
B--------------8h10~-----------------10-----10~-~----------------------|
G-2/---7/9-9-9---------------------------------------------------------|
D-2/-------------------------------------------------------------------|
A-2/-------------------------------------------------------------------|
E----------------------------------------------------------------------|

e--12br----------10-8-10------------8----8~-------------------------------|
B-------10-12-13-----------8-10-12----10------------------13--------------|
G--------------------------------------------10-12-14-14~----14-14~~------|
D-------------------------------------------------------------------------|
A-------------------------------------------------------------------------|
E-------------------------------------------------------------------------|

e----------------------------------------|
B--10h8----------------------------------|
G-------10h9-----------------------------|
D-------------12h10-12-------------------|
A-----------------------12-12~-~---------|
E----------------------------------------|



On the verse Guitar 1 plays:
   2x
e-------------------------------------------------------------|
B--10---10---10--10---10---10--6---6---6--8---8---8-----------|
G-----9----9--------9----9-------5---5------7---7-------------|
D-------------------------------------------------------------|
A-------------------------------------------------------------|
E-------------------------------------------------------------|

  On the 2nd round 
e---------------------8---------------------------------------|
B--10---10---10--12--------6---6---6--8---8---8---------------|
G-----9----9-----------------5---5------7---7-----------------|
D-------------------------------------------------------------|
A-------------------------------------------------------------|
E-------------------------------------------------------------|

Fill 1 (at 1:21)
e------------------------------------|
B------------------------------------|
G---------7-9---7----7----7-9-7h9~-~-|
D-7-9-10----------10---10------------|
A------------------------------------|
E------------------------------------|


SOLO 1 (short one, at 1:34)
e-----------------------------------------------------------|
B--------------------------12br-10~----15b-15b-15-15h17-----|
G----------9-9-------9--------------------------------------|
D--7-7-10------10-7----10-----------------------------------|
A-----------------------------------------------------------|
E-----------------------------------------------------------|
 

Fill 2 (at 2:05)
e-------------------------------------------------------------|
B--------------------------------------8-8h10-8h10~-~---------|
G-------------------------------------------------------------|
D--10-10-10-10--7-7-7---10-10-10-10---------------------------|
A--10-10-10-10--7-7-7---10-10-10-10---------------------------|
E-------------------------------------------------------------|

Fill 3 (at 2:14)

e--12-12-12-12-10-12-13-12------------------|
B---------------------------12p10-10~-~-----|
G-------------------------------------------|
D-------------------------------------------|
A-------------------------------------------|
E-------------------------------------------|

Fill 4 (at 2:22)
e------------------------15h17-17-15h17~-~--|
B--10---12---13---15------------------------|
G--12b--14b--15b--17b-----------------------|
D-------------------------------------------|
A-------------------------------------------|
E-------------------------------------------|

Fill 5 (at 2:33)
e-----10-12-12-10----10-10-----------------|
B--13-------------13--------10-10-10~-~----|
G------------------------------------------|
D------------------------------------------|
A------------------------------------------|
E------------------------------------------|

Fill 6 (at 2:48)

e----15-17-17-17-17-----15-17-17-17-17-----------|
B-17-----------------17--------------------------|
G------------------------------------------------|
D------------------------------------------------|
A------------------------------------------------|
E------------------------------------------------|

e----15-17-17-17-19-19-19-20-20-20-22-20-19-17-20-17-17~-~-|
B-17-------------------------------------------------------|
G----------------------------------------------------------|
D----------------------------------------------------------|
A----------------------------------------------------------|
E----------------------------------------------------------|


SOLO 2 (long one, at 3:01)

e------------------------------10-12-13-12-10-12-------------------10----------------|
B-13-13-12-13-12-10--10-12-13---------------------10-10~-~---10-12----13-12-10-13-12-|
G------------------------------------------------------------------------------------|
D------------------------------------------------------------------------------------|
A------------------------------------------------------------------------------------|
E------------------------------------------------------------------------------------|

e----------------------------------------------------------------------|
B---------------10-10~-------------------------------------------------|
G-9b-9b-9-10-12--------7-9-10-12-10-12--5-7-9-10-9-7-5-7-5-------------|
D-----------------------------------------------------------7-7/-------|
A-------------------------------------------------------------7/-------|
E-------------------------------------------------------------7/-------|

e----------------------------------------------------|
B----------------------------------------------------|
G---------------------------------------------5~-~---|
D-------------------------------5h7-7-7-7h5----------|
A------------------------5h7-7--------------7--------|
E-3h5-5-5-5-3-0--3h5-5-5-----------------------------|

e-----------------------------------------15h17h15--------20b-20~-~-----|
B----------------------------------15h17-----------17-------------------|
G-------12br------------12br--------------------------------------------|
D-12h14------14--12h14--------14----------------------------------------|
A-----------------------------------------------------------------------|
E-----------------------------------------------------------------------|

e--15br-12-12h15-12-----------12-12-------------------------------------------------|
B--------------------12-13-15-------15-13-15-15--13-12-13-12-----------13--10~------|
G-------------------------------------------------------------14-12-12--------------|
D-----------------------------------------------------------------------------------|
A-----------------------------------------------------------------------------------|
E-----------------------------------------------------------------------------------|

e------17-19-20-19-17----15h17~-~------|
B--/17----------------17---------------|
G--------------------------------------|
D--------------------------------------|
A--------------------------------------|
E--------------------------------------|


Fill 7 (at 4:11)

e--14b-14br12--14b-14br12------19b-19br-19b-19br--20-19-17-19-17~-~----|
B----------------------------------------------------------------------|
G----------------------------------------------------------------------|
D----------------------------------------------------------------------|
A----------------------------------------------------------------------|
E----------------------------------------------------------------------|


OUTRO (i think is correct, but in case, listen song for strumming pattern)

e----------------------------------------------------------------------|
B-x-x-3-3-3-3-3-x-x-3-3-3-----8\10-10-10-10-8-8--10-10-10--------------|
G-x-x-4h5-5-5-5-x-x-4h5-5-----7\9--9--9--9--7-7--9--9--9---------------|
D-x-x-5-5-5-5-5-x-x-5-5-5-----5\7--7--7--7--5-5--7--7--7---------------|
A----------------------------------------------------------------------|
E----------------------------------------------------------------------|


e---7h8-8-x-x-7-x-8-8--------10h12-x-x-x-12-12-10-x-12-12--------------|
B---7h8-8-x-x-7-x-8-8--------10h12-x-x-x-12-12-10-x-12-12--------------|
G----------------------------------------------------------------------|
D----------------------------------------------------------------------|
A----------------------------------------------------------------------|
E----------------------------------------------------------------------|





Any corrections or comments e-mail me.
            
Hard to play? Try these video lessons and learn fast. | Correct




comments powered by Disqus
↑ Back to top | Tablatures and chords are parodies/interpretations of the original songs. You may use it for private study, scholarship, research or language learning purposes only