>
 >
El Rey Vivo

El Rey Vivo Guitar Tabs

Mana - El Rey Vivo chords, tabs, tablatures, lyrics

Guitar lessons | Add/correct | Request | Top 50 tabs Artists:  A B C D E F G H I J K L M N O P Q R S T U V W X Y Z 0-9

El Rey Vivo Guitar Tabs – Mana

CD, Sheet music, Poster

Do you like El Rey Vivo? Share with your friends now
Tabs
En vivo Arde el Cielo

E---------------------------------------------------------------------------------|
B-/5-5-8~--5-8-8-5-8-5~--5-5-8-8-5-8---5-3-2~--2-3-5-2--/10--8-----7---7---7---7--|
G-/6-6-6~--6-6-6-6-6-6~--6-6-6-6-6-6---6-4-2~--2-4-6-2--/11--9--/7---7---7---7----|
D---------------------------------------------------------------------------------|
A---------------------------------------------------------------------------------|
E---------------------------------------------------------------------------------|

                 Sostengan las notas
E------------------------------|
B---8---10---8---(7)-----------|
G-7---7----7---7----(7)--------|
D----------------------(7)-----|
A------------------------------|
E------------------------------|

    D
Yo se bien que estoy afuera

pero el dia en que yo me muera
                     A7
se que tengras que llorar

llorar y llorar llorar y llorar


diras que no me quisiste

pero vas a estar muy trizte
                   D
y asi te ves a quedar

(con distorcion)
     G
con dinero y sin dinero

ago siempre lo que quiero
  E7                  A
y mi palabra es la ley


no tengo trono ni reyna

ni nadien que me comprenda
                     D
pero sigo siendo er rey


                    D
una piedra en mi camino

me enseño que mi destino
               A7
era rodar y rodar

rodar y rodar rodar y rodar


E-5--7/9--7-5-3---|
B-----------------|
G-6--7/9--7-6-4---|
D-----------------| x2
A-----------------|
E-----------------|

A7
despues me dijo un arriero

que no hay que llegar primero
                      D
pero hay que saber llegar


       G
con dinero y sin dinero

ago siempre lo que quiero
  E7                 A
y mi palabra es la ley


no tengo trono ni reyna

ni nadien que me comprenda
                     D
pero sigo siendo er rey


Solo 1:

E-------------------------------------------------------------------------------------|
B-13b15r13p10-------------------------------------------------------------------------|
G-------------12-10~----10-10~----10-10~----10-12b14--10-12----10---------------------|
D--------------------12--------12--------12-----------------12----12------------------|
A--------------------------------------------------------------------11-10-8----10-8~-|
E----------------------------------------------------------------------------10-------|

E-------10-------------10-------------10-------------10-------------10--------------|
B----------13p10----------13p10----------13p10----------13p10----------13p10-13b15--|
G-12b14----------12b14----------12b14----------12b14----------12b14-----------------|
D-----------------------------------------------------------------------------------|
A-----------------------------------------------------------------------------------|
E-----------------------------------------------------------------------------------|


E-10-13b15--13--13p10---------------------------------------------------------|
B---------------------13-10----10-13p10---------------------------------------|
G---------------------------12----------12-10----10-12p10---------------------|
D---------------------------------------------12----------12-10---------------|
A---------------------------------------------------------------12-12\10-8~---|
E-----------------------------------------------------------------------------|

E-/10-10-10-/10-10-10-10---------13-13----15-13-------|
B-/10-10-10-/10-10-10-10--13/15~-------15-------15~---|
G-----------------------------------------------------|
D-----------------------------------------------------|
A-----------------------------------------------------|
E-----------------------------------------------------|


E-----13----15p13----17p13----15p13----17p13----17b18~---|
B-/15----15-------15-------15-------15-------15----------|
G--------------------------------------------------------|
D--------------------------------------------------------|
A--------------------------------------------------------|
E--------------------------------------------------------|

                                                                     whammy
E-/10-10-10-10---------------------------------------------------------------|
B-/10-10-10-10---------------------------------------------------------------|
G--------------12b14r12p10-------10------------------------------------------|
D--------------------------12-10----12-10--------------------------------/---|
A-----------------------------------------12-11-10-8----/10--8--7-------/----|
E----------------------------------------------------10------------8--0/-----|

ceeeeeeeee  ohhhhh

waa yo yo yo


y luego……………

E------------------------------------------------------------------------------------|
B------------------------------------------------------------------------------------|
G-7------------------------7-7--5-----------------------5-5--4-----------------------|
D-7------------------------7-7--5-----------------------5-5--4-----------------------|
A-5-5-5-5-5-5-5-5-5-5-5-5--5-5--3-3-3-3-3-3-3-3-3-3-3-3-3-3--2-2-2-2-2-2-2-2-2-2-2---|
E------------------------------------------------------------------------------------|

E---------------------------|
B---------------------------|
G-4-4--3--------------------|
D-4-4--3--------------------|
A-2-2--1-1-1-1-1-1-1-1-1-1--|
E---------------------------|


Solo 2:

E-10----13b15~--13~-10----13b15~--13~--10----13b15~-10-13----10-------------------|
B----10----------------10-----------------10--------------13----10-13b15~---------|
G---------------------------------------------------------------------------------|
D---------------------------------------------------------------------------------|
A---------------------------------------------------------------------------------|
E---------------------------------------------------------------------------------|

E----------------------------------------------------------10--------------------------|
B-10----------------------------------------------------10----13/15~-------------------|
G----13p12p10----------------------------10-------12b14--------------------------------|
D-------------12----------------------10----12-10--------------------------------------|
A----------------/12-10-8~--10/12-10~--------------------------------------------------|
E--------------------------------------------------------------------------------------|


E----13-15b17r15p13-------13--------13--------13--------13-(13)~~~~--------------|
B-15----------------15-13----15b16~----15b16~----15b16~-----15b16~~--------------|
G--------------------------------------------------------------------------------|
D--------------------------------------------------------------------------------|
A--------------------------------------------------------------------------------|
E--------------------------------------------------------------------------------|

E|---------------------------|------|
B|o-------------------------o|------|
G|---------4-7---6-9---4-7---|-7~---|
D|---4-7-5-----7-----5-------|-7~---|
A|o-5-----------------------o|-5~---|
E|---------------------------|------|

E|---------------------2-|-------------------------------------------------------------|
B|---------------------3-|-------------------------------------------------------------|
G|-12b14r12b14 tremolo-2-|-12b14r12p10-------[12]b14r12p10-------12b14r12p10-----------|
D|---------------------0-|-------------12p10---------------12p10-------------12p10-----|
A|-----------------------|-------------------------------------------------------------|
E|-----------------------|-------------------------------------------------------------|

E------------------------------------------------10----------------13-----------------|
B---------------------------------------------10----10-13b15r13b15----13b15~ tremolo--|
G-[12]b14r12p10-------12b14r12p10-------12b14-----------------------------------------|
D--------------12p10--------------12p10-----------------------------------------------|
A-------------------------------------------------------------------------------------|
E-------------------------------------------------------------------------------------|

DM x2

                         T                 T                 T
E-10----12b13r12p10h--13-15/16\15-13p10----15/16\15-13p10----15/16\15-13p10--|
B----10----------------------------------------------------------------------|
G----------------------------------------------------------------------------|
D----------------------------------------------------------------------------|
A----------------------------------------------------------------------------|
E----------------------------------------------------------------------------|

  T                     T        T      T         T         T          T
E-15/16\(15)-(13)p10------------------------------------------------------------|
B--------------------13-15-10----15-10--15-10h13--15-10-------------------------|
G-----------------------------12------------------------12--14-10---------------|
D-----------------------------------------------------------------12--14-10h12--|
A-------------------------------------------------------------------------------|
E-------------------------------------------------------------------------------|

  T         T         T         T        T        T        T         T        T
E-------------------------------------------------------------------------------------|
B-------------------------------------------------------------------------------------|
G-14-10h12--14-10---------------------------------------------------------------------|
D-----------------12--14-10--------------14-10h12-14-10h12----------------------------|
A---------------------------12--14-10h12-------------------14-10h12--14-8h10--14-7h8--|
E-------------------------------------------------------------------------------------|

  T        T      T
E----------------------------|
B----------------------------|
G----------------------------|
D----------------------------|
A-14-8h10--14-7h8-14---------|
E--------------------8/10~~--|


E------------3-3~---|
B------------3-3~---|
G------------0-0~---|
D------------0-0~---|
A----9/12~~--2-2~---|
E-10---------3-3~---|





Comments


Popular Mana tabs & chords
Mi Religion Bass Tabs
No Ha Parado De Llover Bass Tabs
El Verdadero Amor Perdona 1 Chords
Ana Tabs
Clavado En Un Bar 3 Tabs
Cuando Los Angeles Lloran Intro 1 Tabs
El Verdadero Amor Perdona Tabs
Ojala Y Pudiera Borrarte Tabs
Eres Mi Religion Ukulele
Somos Mar Y Arena Ukulele


Song lyrics



↑ Back to top | Tablatures and chords are parodies/interpretations of the original songs. You may use it for private study, scholarship, research or language learning purposes only
© 2014 AZChords.com Contact us | Privacy policy | DMCA | Add/correct tabs | Request tabs | Top 50 tabs