>
 >
Duele El Amor

Duele El Amor Guitar Tabs

Mana - Duele El Amor chords, tabs, tablatures, lyrics

Guitar lessons | Add/correct | Request | Top 50 tabs Artists:  A B C D E F G H I J K L M N O P Q R S T U V W X Y Z 0-9

Duele El Amor Guitar Tabs – Mana

CD, Sheet music, Poster

Do you like Duele El Amor? Share with your friends now
Tabs
-Duele el amor-

Duele el amor, sin ti, duele hasta matar...

{Intro}
  (Guitara de Aleks)
  D                  F#m
E|-----0-----------|-----0-----------|-----0-----------|-----0-----------|
B|-3-------2---0---|-3-------2---0---|-3-------2---0---|-3-------2---0---|
G|---2---2---2---2-|---2---2---2---2-|---2---2---2---2-|---2---2---2---2-|X 4
D|-----------------|-----------------|-----------------|-----------------|
A|-----------------|-----------------|-----------------|-----------------|
E|-----------------|-----------------|-----------------|-----------------|
 |(Guitara Electrica)
E|-------7-9-------|---12--7---------|-7-9-7-----------|-----------------|
B|-7-9-10----------|-----------------|------10-7-------|-5---5-10-7------|
G|-----------------|-----------------|-----------------|-----------------|
D|-----------------|-----------------|-----------------|-----------------|
A|-----------------|-----------------|-----------------|-----------------|
E|-----------------|-----------------|-----------------|-----------------|

(Guitara Electrica)
E|-------7-9-------|---12--7---------|-7-9-7-----------|-----------------|
B|-7-9-10----------|-----------------|------10-7-------|-----------------|
G|-----------------|-----------------|-----------------|-9---9-----------|
D|-----------------|-----------------|-----------------|-------11-9~\----|
A|-----------------|-----------------|-----------------|-----------------|
E|-----------------|-----------------|-----------------|-----------------|

{1er verso}
  -Arpejea lo de el intro-
 E                                F#m
  Siento la humedad en mí         de verte llorar      ni hablar

  E                                 F#m

  Si es que tú te vas  de aquí        creo que a mi me va  sufrir

{2do Verso} Continuas con el Arpejeo
    D                                   F#m
E |Transcripcion del piano para lira          |                 |                 |      
          |
E|-----5-----5---7-|-----5-----5----7|-----5-----5----7|-----5-----5----7|
B|---7-----7-----7-|---7-----7-----7-|---7-----7-----7-|---7-----7-----7-|
G|-7-----7-----7---|-7-----7-----7---|-6-----6-----6---|-6-----6-----6---|
D|-----------------|-----------------|-----------------|-----------------|
A|-----------------|-----------------|-----------------|-----------------|
E|-----------------|-----------------|-----------------|-----------------|
  Hoy quisiera detener el tiempo      la distancia entre los dos

((Guitara de Aleks)
  D                                   F#m
E|-----0-----------|-----0-----------|-----0-----------|-----0-----------|
B|-3-------2---0---|-3-------2---0---|-3-------2---0---|-3-------2---0---|
G|---2---2---2---2-|---2---2---2---2-|---2---2---2---2-|---2---2---2---2-|
D|-----------------|-----------------|-----------------|-----------------|
A|-----------------|-----------------|-----------------|-----------------|
E|-----------------|-----------------|-----------------|-----------------|
 |Piano            |                 |                 |                 |
E|-----5-----5-----|-----5-----5-----|-----5-----5-----|-----5-----5-----|
B|---7-----7-----7-|---7-----7-----7-|---7-----7-----7-|---7-----7-----7-|
G|-7-----7-----7---|-7-----7-----7---|-6-----6-----6---|-6-----6-----6---|
D|-----------------|-----------------|-----------------|-----------------|
A|-----------------|-----------------|-----------------|-----------------|
E|-----------------|-----------------|-----------------|-----------------|
  Pero se apagó la luz del cielo      ya no sale más el sol


 D/E
Soy fragilidad, sin ti
 F#m
Cómo superar, el fin
 D/E
Donde es que dañé, no sé
 F#m
Y el recuperar, se fue


 D
Ni tú ni yo somos culpables
 F#m
Pero somos vulnerables
 D
Son las cosas de la vida
 F#m                E
Que me queda por vivir

{Coro}
           D        E
Duele el amor, sin ti
 C#m           F#m
Duele hasta mojar
         D        E
Duele el amor, sin ti
 C#m           F#m
Duele hasta matar
    E      D        E
Duele el amor, sin ti
 C#m           F#m E D/E
Todo está tan gris

Continuas con el arpejeo del principio
 Guitarra Electrica
E|-------7-9-------|---12--7---------|-7-9-7-----------|-----------------|
B|-7-9-10----------|-----------------|------10-7-------|-5---5-10-7------|
G|-----------------|-----------------|-----------------|-----------------|
D|-----------------|-----------------|-----------------|-----------------|
A|-----------------|-----------------|-----------------|-----------------|
E|-----------------|-----------------|-----------------|-----------------|

 Guitarra Electrica
E|-------7-9-------|---12--7---------|-7-9-7-----------|-----------------|
B|-7-9-10----------|-----------------|------10-7-------|---10\12---10----|
G|-----------------|-----------------|-----------------|-9---------------|
D|-----------------|-----------------|-----------------|-----------------|
A|-----------------|-----------------|-----------------|-----------------|
E|-----------------|-----------------|-----------------|-----------------|

-Se agrega la transcripcion del piano-
 D
Hoy quisiera detener el tiempo
 F#m
La distancia entre los dos
 D
Pero se apagó la luz del cielo
 F#m
Ya no sale más el sol


 D/E
Soy fragilidad, sin ti
 F#m
Cómo superar, el fin
 D/E
Donde es que dañé, no sé
 F#m
Y el recuperar, se fue

D
Ni tú ni yo somos culpables
 F#m
Pero somos vulnerables
 D
Son las cosas de la vida
 F#m                E
Que me queda por vivir

{Coro}
           D        E
Duele el amor, sin ti
 C#m           F#m
Duele hasta mojar
    E      D        E
Duele el amor, sin ti
 C#m           F#m
Duele hasta matar
    E      D        E
Duele el amor, sin ti
 C#m           F#m E D/E
Todo está tan gris


 D                D/E
Siento la humedad, en mí
 F#m            E
De verte llorar, ni hablar
 D                  D
Si es que tú te vas, de aquí
 F#m                E
Creo que a mi me va, sufrir

D                 D
Siento la humedad, en mí
 F#m            E
De verte llorar, ni hablar
 D                  D
Si es que tú te vas, de aquí
 F#m                E                     D
Creo que a mi me va, creo que mi me va sufrir

{Coro}
    E      D        E
Duele el amor, sin ti
 C#m           F#m
Duele hasta mojar
    E      D        E
Duele el amor, sin ti
 C#m           F#m
Duele hasta matar
    E      D        E
Duele el amor, sin ti
 C#m           F#m E
Todo está tan gris

{Fade out)
 Guitara  Electrica
E|-----------------|-----------------|-----------------|-----------------|
B|-10-9------------|-----------------|-10-9--12--------|-----------------|
G|-----------9--11~|~~~~-------------|------------9—11~|~~~~-------------|
D|-------11--------|-----------------|-----------------|-----------------|
A|-----------------|-----------------|-----------------|-----------------|
E|-----------------|-----------------|-----------------|-----------------|

  Electric
E|-----------------|-----------------|-----------------|-----------------|
B|-10-9------------|-----------------|-----------------|-----------------|
G|-----------9—9\7~|~------------9-7-|-----------------|-----------------|
D|-------11--------|-----------------|-9-------9/11----|-----------------|
A|-----------------|-----------------|-----------------|--9~-------------|
E|-----------------|-----------------|-----------------|-----------------|

********* Bueno bola de feos aqui esta esta rola del señor Syntek y Ana Toroja que
fue idea hacer este dueto y va dedicada para toda la bande del Fray Matias y en
especial para novia Dulce que es todo lo que pudiera pedir en este mundo y para
el Lic. Enrique Y mi carnal que son mis chiles te amo Toño feo 
Rafa Homero estan feos Att. El 
Arturo y los Fabulosos Chicharos Pesados*************





Comments


Popular Mana tabs & chords
De Piez A Cabeza 3 Bass Tabs
En El Muelle De San Blas Bass Tabs
Robot Chords
Como Dueles En Los Labios Tabs
En El Muelle De San Blas Intro 2 Tabs
Manda Una Seal 2 Tabs
Mariposa Traicionera 1 Tabs
Te Solte La Rienda 1 Tabs
El Verdadero Amor Perdona Ukulele
Tengo Muchas Alas Ukulele


Song lyrics



↑ Back to top | Tablatures and chords are parodies/interpretations of the original songs. You may use it for private study, scholarship, research or language learning purposes only
© 2014 AZChords.com Contact us | Privacy policy | DMCA | Add/correct tabs | Request tabs | Top 50 tabs