» » »

Corazon Espinado Bass tabs (ver.1)

Artists:  A B C D E F G H I J K L M N O P Q R S T U V W X Y Z # 

Corazon Espinado Bass tabs (ver.1)

Mana
Rating:
5/5 (2 votes)

Hard to play? Try these video lessons and learn fast.
                INTRO

3 Compaces de piano y organo.

G: |--------|
D: |--------|
A: |--------|
E: |-----14/|

G: |-------------------|-------------------|(2x)
D: |-------------------|-------------------|
A: |---5-5-------4---4-|---5-5-------4---4-|
E: |-7-----2-2-6---6---|-7-----2-2-6---6---|

VERSO 1
G: |-----------------|-----------------|(4x)
D: |-----------------|-----------------|
A: |---5-------4---4-|---5-------4---4-|
E: |-7---2-2-6---6---|-7---2-2-6---6---|

CORO 1
G: |-------------------|-------------------|(2x)
D: |-------------------|-------------------|
A: |---5-5-------4---4-|---5-5-------4---4-|
E: |-7-----2-2-6---6---|-7-----2-2-6---6---|

VERSO 2
G: |-------------------|-------------------|(2x)
D: |-------------------|-------------------|
A: |---5-5-------4---4-|---5-5-------4---4-|
E: |-7-----2-2-6---6---|-7-----2-2-6---6---|

 
G: |-----------------|-----------------|
D: |-----------------|-----------------|
A: |---5-------4---4-|---5-------4---4-|
E: |-7---2-2-6---6---|-7---2-2-6---6---|

CORO 2
G: |-------------------|(7x)
D: |-------------------|
A: |---5-5-------4---4-|
E: |-7-----2-2-6---6---|

BRIDGE
G: |--------------------------------|
D: |---------------------------4----|
A: |---5-----------5-2-4---1-4------|
E: |-7---2-2-7-7-7-------2-------14/|

SOLO 1
G: | |-------------------|(3x)|
D: | |-------------------|    |
A: | |---5-5-------4---4-|    |
E: | |-7-----2-2-6---6---|    |
   |                          |(2x)
G: | |---------------------|* | *EN AMBAS OCASIONES SE TOCAN LAS MISMAS
D: | |---------------4-2-0-|  |  NOTAS, PERO CON DIFERENTE RÍTMICA
A: | |---5-5-------1-------|  |
E: | |-7-----2-2-2---------|  |

VERSO 3
G: |-------------4-|---------------|-------------4-|
D: |---5-----5-5---|-------------4-|---5-----5-5---|
A: |-7---7-7-------|---5-----5-5---|-7---7-7-------|
E: |---------------|-7---7-7-------|---------------|
Como me duele el olvido

G: |---------------|--------------|--------------|
D: |---------------|---7------4-7-|--------------|
A: |---5----------4|-5---5-5------|---4-----4--5-|
E: |-7---7-7--5-7--|--------------|-5---5-5------|

G: |--------------4---------|
D: |---5------5-5-----------|
A: |-7----7-7---------------|
E: |----------------2-2-2-2-|

G: |-------------------|(3x)
D: |-------------------|
A: |---5-5-------4---4-|
E: |-7-----2-2-6---6---|
Corazon espinado...


G: |-------------------------------|(Este amarrado debe hacerse con
D: |-------------------------------| con todos los instrumentos)
A: |-------------------------------|
E: |-7-7-7-7-7-7-7-7-2-2-2-2-5-5-4-|

SOLO 2
G: |-------------------|(4x)
D: |-------------------|
A: |---5-5-------4---4-|
E: |-7-----2-2-6---6---|

CORO 3
G: |-------------------|(3x)|-------------------------|
D: |-------------------|    |-------------------------|
A: |---5-5-------4---4-|    |---5-5--------1-1--------|
E: |-7-----2-2-6---6---|    |-7-----2-2--2-----2-6-7--|
Corazón espinado...

FINAL
G: |-------------------|(FADE OUT WITH FEEL)
D: |-------------------|
A: |---5-5-------4---4-|
E: |-7-----2-2-6---6---|
 compliments of arturorugerio
            
Hard to play? Try these video lessons and learn fast. | Correct




comments powered by Disqus
↑ Back to top | Tablatures and chords are parodies/interpretations of the original songs. You may use it for private study, scholarship, research or language learning purposes only