>
 >
Como Dueles En Los Labios 2

Como Dueles En Los Labios 2 Guitar Tabs

Mana - Como Dueles En Los Labios 2 chords, tabs, tablatures, lyrics

Guitar lessons | Add/correct | Request | Top 50 tabs Artists:  A B C D E F G H I J K L M N O P Q R S T U V W X Y Z 0-9

Como Dueles En Los Labios 2 Guitar Tabs – Mana

CD, Sheet music, Poster

Do you like Como Dueles En Los Labios 2? Share with your friends now
ChordsTabsTabs v2Tabs v3Tabs v4Ukulele
Mana - Como dueles en los labios


INTRO:

    G                D/F#
e---------------0----------------------|
B---3---3---3--------3---3---3---1/0---|
G-----0---0---0---0----2---2---2-------|
D--------------------------------------|
A--------------------------------------|
E---3----------------2-----------------|

    G                D/F#
e---------------0----------------------|
B---3---3---3--------3---3---3---1/0---|
G-----0---0---0---0----2---2---2-------|
D--------------------------------------|
A--------------------------------------|
E---3----------------2-----------------|


en este punto entra el toque de la flauta,
solo debmos repetir...


    G                D/F#
e---------------0----------------------|
B---3---3---3--------3---3---3---1/0---|
G-----0---0---0---0----2---2---2-------|
D--------------------------------------|
A--------------------------------------|
E---3----------------2-----------------|

    G                D/F#
e---------------0----------------------|
B---3---3---3--------3---3---3---1/0---|
G-----0---0---0---0----2---2---2-------|
D--------------------------------------|
A--------------------------------------|
E---3----------------2-----------------|


Aquí termina el intro y empezamos la cantada.
sigue el arpegio con su letra debajo.
es así como realmente se toca...y suena exacto...


    G                          D/F#
e----------------------------|-------------------|
B---0------------------------|---------0---1-----|
G---------0----0----0----0---|-2---2-----0---0---|
D------0----0----0----0----0-|---0---0-----------|
A----------------------------|-------------------|
E---3------------------------|-2-----------------|
           Como dueles en los labios...


    G                          D/F#
e----------------------------|-------------------|
B---0------------------------|---------3---1-----|
G---------0----0----0----0---|-2---2-----0---0---|
D------0----0----0----0----0-|---0---0-----------|
A----------------------------|-------------------|
E---3------------------------|-2-----------------|
           Como duele en todos lados...


   G                    D/F#           B(dis)    Em        D/F#
e---------------------|--------------|---------|---------|---------|
B--0-----1-----3------|-3-----3----3-|-1---1---|-0---0---|-3---3---|
G-----0-----0------0--|----2----2----|---2---2-|---0---0-|---2---2-|
D---------------------|--------------|---------|---------|---------|
A---------------------|--------------|-2-------|---------|---------|
E--3------------------|-2------------|---------|-0-------|-2-------|
        Como duelen sus caricias cuando ya...se ha ido


    G                          D/F#
e----------------------------|-------------------|
B---0------------------------|---------0---1-----|
G---------0----0----0----0---|-2---2-----0---0---|
D------0----0----0----0----0-|---0---0-----------|
A----------------------------|-------------------|
E---3------------------------|-2-----------------|
            Como me duele la ausencia


    G                          D/F#
e----------------------------|-------------------|
B---0------------------------|---------3---1-----|
G---------0----0----0----0---|-2---2-----0---0---|
D------0----0----0----0----0-|---0---0-----------|
A----------------------------|-------------------|
E---3------------------------|-2-----------------|
             Como extraño su color de voz


    G                     D/F#           B(dis)    Em        Am-Em7-
e----------------------|---------------|---------|---------|----------|
B---0-----1-----3------|--3-----3----3-|-1---1---|-0---0---|-1---1----|
G------0-----0------0--|-----2----2----|---2---2-|---0---0-|---2---0--|
D----------------------|---------------|---------|---------|----------|
A----------------------|---------------|-2-------|---------|-0---2----|
E---3------------------|--2------------|---------|-0-------|----------|
       Como falta  su presencia en mi habi...  tación...


    C                             G
e------------------------------|----------0---1----|
B---1-----1-----1-----1----1---|--3---3-----3---0--|
G------0-----0-----0-----0---0-|----0---0----------|
D------------------------------|-------------------|
A---3--------------------------|-------------------|
E------------------------------|--3-------3--------|
           Como me duele el invierno


    C                           G
e---0-------------------------|---------3---1----|
B---------1-----1-----1---1---|-3---3-----3---0--|
G------0-----0-----0----0---0-|---0---0----------|
D-----------------------------|------------------|
A---3-------------------------|------------------|
E-----------------------------|-3-------3--------|
             Como me duele el Verano


  C                        G              E/G#      Am       Am-Em7
e-0-----0-----1-----3----|-3------------|--------|-------------------|
B----1-----1-----1-----1-|---3-----3----|-5--5---|--1-1-1-1-1-1-3-3--|
G------------------------|------0-----0-|---4--0-|---2-2-2-2-2-2-0-0-|
D------------------------|--------------|--------|-------------------|
A-3----------------------|--------------|--------|--0-------0---2----|
E------------------------|-3------------|-4------|-------------------|
         Como me envenena el tiempo cuando  tu... no estás


C                                 G
e------------------------------|----------0---1----|
B---1-----1-----1-----1----1---|--3---3-----3---0--|
G------0-----0-----0-----0---0-|----0---0----------|
D------------------------------|-------------------|
A---3--------------------------|-------------------|
E------------------------------|--3-------3--------|
             Como duele estar viviendo

    C                           G
e---0-------------------------|---------3---1----|
B---------1-----1-----1---1---|-3---3-----3---0--|
G------0-----0-----0----0---0-|---0---0----------|
D-----------------------------|------------------|
A---3-------------------------|------------------|
E-----------------------------|-3-------3--------|
          Como duele estar muriendo así

  C                        G              E/G#      Am
e-0-----0-----1-----3----|-3------------|--------|----------|
B----1-----1-----1-----1-|---3-----3----|-5--5---|--1-1-1-1-|
G------------------------|------0-----0-|---4--0-|---2-2-2-2|
D------------------------|--------------|--------|----------|
A-3----------------------|--------------|--------|--0-------|
E------------------------|-3------------|-4------|----------|
      Como me duele hasta el alma en mi habi...tación


        C/G         Am/F#           F            G           C
e----------------|----------------|------------|----------|-----------|
B-------1-1-1-1--|--1--1---1--1---|-1-1-1-1-1--|-3-3-3-3--|--1-1-1----|
G--------0-0-0-0-|----2--2--2--2--|--2-2-2-2-2-|--4-4-4-4-|---0-0-0---|
D----------------|----------------|------------|----------|-----------|
A----------------|----------------|------------|----------|--3--------|
E-------3--------|--2-------------|-1----------|-3--------|-----------|
como dueles en los labios, en todos la...        dos       soledad

Bueno, en esta etapa entra el solo de flauta, su acompañamiento es así:

  C          Em7-G       C         Em7        C      Em7   E/G#  Am
e-------3-|------0-1--|-0-0-1-3-|----------|-----3-|------|-----|-------
B-1-1-1---|-3-3---0-0-|--1-1-1--|-3-3-1-0--|-1-1---|-3-3--|-5-5-|-1-1-1-
G--0-0-0--|--0-0------|---------|--0-0-0-0-|--0-0--|--0-0-|--4-4|--2-2-2
D---------|-----------|---------|----------|-------|------|-----|-------
A-3-------|-2---------|-3-------|-2--------|-3-----|-2----|-----|-0-----
E---------|------3----|---------|----------|-------|------|-4---|-------

        C/G         Am/F#           F            G           C
e----------------|----------------|------------|----------|---------|
B-------1-1-1-1--|--1--1---1--1---|-1-1-1-1-1--|-3-3-3-3--|--1-1-1--|
G--------0-0-0-0-|----2--2--2--2--|--2-2-2-2-2-|--4-4-4-4-|---0-0-0-|
D----------------|----------------|------------|----------|---------|
A----------------|----------------|------------|----------|--3------|
E-------3--------|--2-------------|-1----------|-3--------|---------|
como dueles en los labios, en todos la...        dos     soledad


   C-Em7 - Am            C/G        Am/F#     D/F#      E
e---------|-----------|----------|----------|---------|-----0---|
B--1---3--|-1---1---1-|--1---1---|--1---1---|-3---3---|-0-0---0-|
G----0---0|---2---2---|----0---0-|----2---2-|---2---2-|--1-1-1-1|X2
D---------|-----------|----------|----------|---------|---------|
A--3---2--|-0---------|----------|----------|---------|---------|
E---------|-----------|--3-------|--2-------|-2-------|-0-------|
                aaaaaaaaaaaaaaaaaaaaaaaaaaaaaaaaaaaaaaaaaaaaaa


   Am           C/G         Am/F#       D/F#         E
e|-----------|-----------|-----------|-----------|-----------0-------|
B|-1---1---1-|--1---1----|--1---1----|--3---3----|---0---0-------0---|
G|---2---2---|----0---0--|----2---2--|----2---2--|-----1---1---1---1-|X2
D|-----------|-----------|-----------|-----------|-------------------|
A|-0---------|-----------|-----------|-----------|-------------------|
E|-----------|--3--------|--2--------|--2--------|---0---------------|
           Como me duele no verte como duele en madrugada

Aumentamos 1 tono...

  Bm            B/A         G           E/G#         F#
e|-----------|-----------|-----------|-----------|-----------2--------|
B|-3---3---3-|--3---3----|--3---3----|--5---5----|---2---2-------2----|
G|---4---4---|----4---4--|----0---0--|----4---4--|-----3---3---3---3--|X2
D|-----------|-----------|-----------|-----------|--------------------|
A|-2---------|--0--------|-----------|-----------|--------------------|
E|-----------|-----------|--3--------|--4--------|---2----------------|
          Como dueles en los labios como duele en madrugada




  Bm            B/A         G           E/G#         F#
e|-----------|-----------|-----------|-----------|-----------2--------|
B|-3---3---3-|--3---3----|--3---3----|--5---5----|---2---2-------2----|
G|---4---4---|----4---4--|----0---0--|----4---4--|-----3---3---3---3--|
D|-----------|-----------|-----------|-----------|--------------------|
A|-2---------|--0--------|-----------|-----------|--------------------|
E|-----------|-----------|--3--------|--4--------|---2----------------|





Comments


Popular Mana tabs & chords
Amor Clandestino Chords
Como Diablos Chords
Eres Mi Religion Chords
Labios Compartidos 2 Chords
Ojala Pudiera Borrarte Chords
Tengo Muchas Alas Chords
En El Muelle De San Blas 4 Tabs
Eres Me Religion Tabs
Como Un Perro Enloquecido Ukulele
El Desierto Ukulele


Song lyrics



↑ Back to top | Tablatures and chords are parodies/interpretations of the original songs. You may use it for private study, scholarship, research or language learning purposes only
© 2014 AZChords.com Contact us | Privacy policy | DMCA | Add/correct tabs | Request tabs | Top 50 tabs