» » »

Mana, Como Dueles En Los Labios Tabs (ver.4)

Artists:  A B C D E F G H I J K L M N O P Q R S T U V W X Y Z # 

Como Dueles En Los Labios Tabs (ver.4)

Mana Tabs
 Rating:
4.2/5 (5 votes)
Como Dueles En Los Labios lessons Tabs too difficult? Try these video lessons and learn fast
                ACORDES:> G D Em C Am F#m

Hola a todos...bueno aqi les dejo esta rola de mana ke
pues pienso ke esta aun 98% correcta o mas o menos por ahi
pero para mi suena identica a la cancion
bueno pues espero y les guste y la disfruten...
 G           D
e-------------0-----------------------|
B-3---3---3---------3---3---3----1p0--|
G---0---0---0---0-----2---2---2-------| x4
D-------------------------------------|
A-------------------------------------|
E-3-----------------2-----------------|
  G          D
e-------------0-----------------------|
B-3---3---3---------3---3---0---1-----|
G---0---0---0---0-----2---2---2---2---|
D-------------------------------------|
A-------------------------------------|
E-3-----------------2-----------------|
    Como dueles en los labios
  G           D
e-------------0-----------------------|
B-3---3---3---------3---3---3---1-----|
G---0---0---0---0-----2---2---2---2---|
D-------------------------------------|
A-------------------------------------|
E-3-----------------2-----------------|
    Como duele en todos lados
  G                    D
e-------------------------------------------------|
B-0---0---1---3-------3---3------1----1-----------|
G---0---0---0---0-------2---2-------2---2---------|
D--------------------------------1----------------|
A-------------------------------------------------|
E-3-------------------2---------------------------|
    Como duelen sus caricias cuando ya se ha ido
 Em               Em       D
e------------------------------------|
B-0---0---0---0-----0---0---3---3----|
G---0---0---0---0-----0---0---2---2--|
D------------------------------------|
A------------------------------------|
E-0-----------------0-------2--------|
  G          D
e-------------0----------------------|
B-3---3---3--------3---3---0---1-----|
G---0---0---0---0----2---2---2---2---|
D------------------------------------|
A------------------------------------|
E-3----------------2-----------------|
     Como me duele la ausencia
  G           D
e-------------0----------------------|
B-3---3---3---------3---3---3---1----|
G---0---0---0---0-----2---2---2---2--|
D------------------------------------|
A------------------------------------|
E-3-----------------2----------------|
    Como extraño su color de voz
  G                        D
e-------------------------------------------------|
B-0---0---1---3---------------3---3------1----1---|
G---0---0---0---0---------------2---2-------2---2-|
D----------------------------------------1--------|
A-------------------------------------------------|
E-3---------------------------2-------------------|
     Como falta         su presencia en mi habita
    Em            Em           D
e-------------------------------------|
B-0---0---0---0----0---0-----2----3---|
G---0---0---0---0----0---0-----0----0-|
D----------------------------1--------|
A---------------------------------2---|
E-0----------------0------------------|
   cion
   C                  G
e--------------------------0---1-----|
B-1---1---1---1----3---3-------------|
G---0---0---0---0----0---0---0---0---|
D------------------------------------|
A------------------------------------|
E-3----------------3-----------------|
     Como me duele el invierno
  C                 G
e--------------------------3---1-----|
B-1---1---1---1----3---3-------------|
G---0---0---0---0----0---0---0---0---|
D------------------------------------|
A-3----------------------------------|
E------------------3-----------------|
     Como me duele el verano
  C                   G
e-0---0---0---3---------3--------------------------|
B---1---1---1---1------------0-----0-----0---------|
G--------------------------0---0-------1---1-------|
D--------------------------------------------------|
A-3------------------------------------------------|
E-----------------------3----------4---------------|
   Como me envenena el tiempo cuando tu no es
  Am                      G
e-----------------------------------|
B-1---1---1---1----1---1----3---3---|
G---2---2---2---2----2---2----0---0-|
D-----------------------------------|
A-0----------------0--------2-------|
E-----------------------------------|
  tas
  C                 G
e---------------------------0---1---|
B-1---1---1---1-----3---3-----------|
G---0---0---0---0-----0---0---0---0-|
D-----------------------------------|
A-3---------------------------------|
E-------------------3---------------|
    Como duele estar viviendo
   C                 G
e---------------------------3---1---|
B-1---1---1---1-----3---3-----------|
G---0---0---0---0-----0---0---0---0-|
D-----------------------------------|
A-3---------------------------------|
E-------------------3---------------|
   Como duele estar muriendo asi
  C                    G
e-0---0---0---3--------3--------------------|
B---1---1---1---1-----------0------0---0----|
G-------------------------0---0------1---1--|
D-------------------------------------------|
A-3-----------------------------------------|
E----------------------3-----------4--------|
    Como me duele hasta el alma en mi habita

 CORO:
  Am                 C
e------------------------------------|
B-1---1---1---1-----1---1---1---1----|
G---2---2---2---2-----2---2---2---2--|
D------------------------------------|
A-0----------------------------------|
E-------------------3----------------|
  cion            Como dueles     en los la
  F#m
e--------------------------------------|
B-1---1---1---1-------1---1---1---1----|
G---2---2---2---2-------2---2---2---2--|
D--------------------------------------|
A--------------------------------------|
E-2-------------------1----------------|
  bios            en todos ladoooo
  G                        C
e------------------------------------------|
B-3---3---3---3------------1---1---1---1---|
G---0---0---0---0------------0---0---0---0-|
D------------------------------------------|
A--------------------------3---------------|
E-3----------------------------------------|
  oooos             Soledad
  G                 C                  G
e---------0---1-------------------------------3---1---|
B-3---3-------------1---1---1---1-----3---3-----------|
G---0---0---0---0-----0---0---0---0-----0---0---0---0-|
D-----------------------------------------------------|
A-------------------3---------------------------------|
E-3-----------------------------------3---------------|
  C                 G                    Am
e-0---0---0---3-----3------------------------------------|
B---1---1---1---1--------0-----0----0----1---1---1---1---|
G----------------------0---0------1---1----2---2---2--2--|
D--------------------------------------------------------|
A-3--------------------------------------0---------------|
E-------------------3----------4-------------------------|
                                                     Co-
  C                        F#m
e------------------------------------------------------------|
B-1---1---1---1-----------1---1---1---1------1---1---1---1---|
G---2---2---2---2-----------2---2---2---2------2---2---2---2-|
D------------------------------------------------------------|
A------------------------------------------------------------|
E-3-----------------------2------------------1---------------|
  mo dueles            en los labios     en todos ladooo
  G                   C                 C
e-------------------------------------|---------|
B-3---3---3---3-------1---1---1---1---|-1---2---|
G---0---0---0---0-------0---0---0---0-|---0---0-|
D-------------------------------------|---------|
A---------------------3---------------|-3---3---|
E-3-----------------------------------|---------|
 oooos          soledad
  Am           C G                 Em
e-----------------------------------------------0---|
B-1---1---1---1----1---1---3---3----0---0---3-------|
G---2---2---2---2----2---2---2---2----1---1---1---1-|
D--------------------------0------------------------|
A-0-------------------------------------------------|
E---------3--------2----------------0---------------|
  Am          C G                  Em                 x2
e-------------------------------------------0-------|
B-1---1---1---1----1---1---3---3----0---0-------3---|
G---2---2---2---2----2---2---2---2----1---1---1---1-|
D--------------------------0------------------------|
A-0-------------------------------------------------|
E---------3--------2----------------0---------------|

Y esta es el final: SE REPITE HASTA QUE LA ROLA DE ACABE

e-------------------------------------------2-------|
B-3---3---3---3----3---3---3---3----2---2-------2---|
G---4---4---4---4----4---4---4---4----3---3---3---3-|
D---------------------------------------------------|
A-2-------0-----------------------------------------|
E------------------3-------0--------2---------------|

Saludos a todos!
Roberto Israel Ramos González
            
Submit corrections

comments powered by Disqus
↑ Back to top | Mana Tabs for Como Dueles En Los Labios. Lyrics for acoustic guitar and electric guitar. Tablatures and chords are parodies/interpretations of the original songs. You may use it for private study, scholarship, research or language learning purposes only