>
 >
Como Diablos 1

Como Diablos 1 Guitar Tabs

Mana - Como Diablos 1 chords, tabs, tablatures, lyrics

Guitar lessons | Add/correct | Request | Top 50 tabs Artists:  A B C D E F G H I J K L M N O P Q R S T U V W X Y Z 0-9

Como Diablos 1 Guitar Tabs – Mana

CD, Sheet music, Poster

Do you like Como Diablos 1? Share with your friends now
ChordsTabsTabs v2Ukulele
Intro

e-----------------------------------------------4-------------|
B-------------------------------------5--4---------7--5--4----|
G--------1----------------1------------------6----------------|
D--222--------1----222---------1------------------------------|
A-----------2----------------2--------------------------------|
E-------------------------------------------------------------|

e-----------------------------------------------4-----5--4----|
B-------------------------------------5--4---------7----------|
G--------1----------------1------------------6----------------|
D--222--------1----222---------1------------------------------|
A-----------2----------------2--------------------------------|
E-------------------------------------------------------------|

e------2-------2---4---2---------2-------2---4---2-----5~---------------------|
B------2-------2---4---2---------2-------2---4---2-----5~----10--9--7--9------|
G------4-------4---6---4---------4-------4---6---4-----6~----9---9--8--9------|
D--2---4---2---4---6---4-----2---4---2---4---6---4-----7~---------------------|
A--0---2---0---2---4---2-----0---2---0---2---4---2-----7~---------------------|
E--0-------0-----------------0-------0-----------------5~---------------------|


Verse (Look for correct strumming patern) ;)
  3x                           At the 4th time
e------------------------|------------------------|
B------------------------|------------------------|
G--9---9---6---4---------|---9--9-----6--4--------|
D--9---9---6---4---------|---9--9--7--6--4--------|
A--7---6---4---2---------|---7--6--7--4--2--------|
E------------------------|---------5--------------|


Chorus 
                                                              [ light Dist.]
e------2-------2--------2-------------------------------------------------|
B------2-------2--------2-------------------------------------------------|
G------4-------4--------4----------------------6------9---4-------6---4---|
D--2---4---2---4----2---4---2---1h2--1---------6--7---9---4----7--6---4---|
A--0---2---0---2----0---2---0------------4--2--4--7---7---2----7--4---2---|
E--0-------0--------0-------0---------------------5------------5----------|



SOLO
e------------------------------------------------------------------------|
B------------------------------------9h12--12-12-12--9-------------------|
G--12b--12b-12-11~~----12b--11--9~----------------------12b--12--11~-----|
D------------------------------------------------------------------------|
A------------------------------------------------------------------------|
E------------------------------------------------------------------------|

e--------------------------------------------------|
B--------------------13----------------------------|
G--12b--12b-12--11~--12b--12br--11--11~~-----------|
D--------------------------------------------------|
A--------------------------------------------------|
E--------------------------------------------------|

Post- SOLO

e-------------------------------------|
B-------------------------------------|
G--6-----4------9-8-6-----------------|
D--6--7--4------9-8-6---7--9-9-9------|
A--4--7--2------7-6-4---7--9-9-9------|
E-----5-----------------5--7-7-7------|





Comments


Popular Mana tabs & chords
Corazon Espinado Bass Tabs
Rayando El Sol Bass Tabs
Rayando El Sol 1 Bass Tabs
Te Llevare Al Cielo Bass Tabs
Dime Luna Chords
Mariposa Traicionera Chords
Si No Te Hubieras Ido 1 Chords
Tu Me Salvaste Chords
Manda Una Seal 2 Tabs
Te Llore Un Rio Tabs


Song lyrics



↑ Back to top | Tablatures and chords are parodies/interpretations of the original songs. You may use it for private study, scholarship, research or language learning purposes only
© 2014 AZChords.com Contact us | Privacy policy | DMCA | Add/correct tabs | Request tabs | Top 50 tabs