>
 >
Como Diablos

Como Diablos Guitar Tabs

Mana - Como Diablos chords, tabs, tablatures, lyrics

Guitar lessons | Add/correct | Request | Top 50 tabs Artists:  A B C D E F G H I J K L M N O P Q R S T U V W X Y Z 0-9

Como Diablos Guitar Tabs – Mana

CD, Sheet music, Poster

Do you like Como Diablos? Share with your friends now
ChordsTabsTabs v2Ukulele
Hi,Im Gabriel and heres another tab of this great band,my favorite;Mana. Any question, 

INTRO:

e--------------------------------------4-2----------|
B---------1-3----------1-4-----5-4-2-0------5-4-----|
G-2-2-2h4-------2-2-2h4-----------------------------|
D---------------------------------------------------|
A---------------------------------------------------|
E---------------------------------------------------|

e--------------------------------------4-2--5-4-----|
B---------1-3----------1-4-----5-4-2-0--------------|
G-2-2-2h4------2-2-2h4------------------------------|
D---------------------------------------------------|
A---------------------------------------------------|
E---------------------------------------------------|

e--5-5-5-5---------------0--|
B--5-5-5-5--10---9--7----0--|
G--6-6-6-6---9---9--8----0--|
D--7-6-6-6---7---9--9----0--|
A--7-7-7-7---------------0--|
E--5-5-5-5---------------0--|

Verse 1:

E         B7             C#m          A
Quede ahogado entre tus muslos y tu miel,
E       B7              C#m       A
quede dañado cuando te fuiste con el,
E          B7            C#m        A
quede tan solo que he perdido la razon,
E          B7             A       C#m    B7
cai en tu fuego y esta quemando el corazon.

Chorus:

E  B7        E        B7
Como diablos te me metiste,
E          B7             E
me esta estallando el corazon,

e----------4---------|
B----------5---------|
G----------6---------|
D----------6---------|
A-7-6-4----4---------|
E-------7--4---------|
C#m  A       E           B7
como diablos te me perdiste,
A     E         B7
ay, ay, ay, ay, ay.

Verse 2:

E         B7           C#m            A
Estoy perdido en las venas de esta cuidad,
E       B7          C#m            A
extrañandote en la orilla de este bar,
E         B7               C#m         A
como una rosa que esta en medio de la mar,
E          B7        A       C#m      B7
me estas matando suavemente y sin piedad.

Chorus:

E  B7        E        B7
Como diablos te me metiste,
E          B7             E
me esta estallando el corazon,
e----------4---------|
B----------5---------|
G----------6---------|
D----------6---------|
A-7-6-4----4---------|
E-------7--4---------|

C#m  A       E           B7
como diablos te me perdiste,
A     E         B7
ay, ay, ay, ay, ay.

E  B7        E        B7
Como diablos te me metiste,
E          B7             E
me esta estallando el corazon,

e----------4---------|
B----------5---------|
G----------6---------|
D----------6---------|
A-7-6-4----4---------|
E-------7--4---------|

C#m  A       E           B7
como diablos te me perdiste,
A     E         B7
ay, ay, ay, ay, ay.

SOLO:

e-----------------7----------------------------------------------------|
B–9b-7p5-7-9~--7~----9-10h11p10-------7h9p7---7p5h7---9b-7p5-7b--9-9-9-|
G-------------------------------10b-7----------------------------------|
D----------------------------------------------------------------------|
A----------------------------------------------------------------------|
E----------------------------------------------------------------------|

e----------------|
B-9-7-5-7b-9b----|
G----------------|
D----------------|
A----------------|
E----------------|

Verse 3:

E          A                   B7
Si quiero vivir, tendre que olvidar,
         E        G#m  C#m
y voy a borrar tu amor,
           A                  B7
si quiero vivir, tengo que olvidar,
                  E
ihee ihee ehhh ohhhh.

e--------------------------------------4-2----------|
B---------1-3----------1-4-----5-4-2-0------5-4-----|
G-2-2-2h4-------2-2-2h4-----------------------------|
D---------------------------------------------------|
A---------------------------------------------------|
E---------------------------------------------------|

e--------------------------------------4-2--5-4-----|
B---------1-3----------1-4-----5-4-2-0--------------|
G-2-2-2h4------2-2-2h4------------------------------|
D---------------------------------------------------|
A---------------------------------------------------|
E---------------------------------------------------|

Chorus:

E  B7        E        B7
Como diablos te me metiste,
E          B7             E
me esta estallando el corazon,
e----------4---------|
B----------5---------|
G----------6---------|
D----------6---------|
A-7-6-4----4---------|
E-------7--4---------|

C#m  A       E           B7
como diablos te me perdiste,
A     E         B7
ay, ay, ay, ay, ay.

 E
Como, como diablos,
       A             B7
como duele, oh no no no,
 E
como, como diablos,
       A             B7
como duele, oh no no no,
 E
como, como diablos,
       A                 B7
como duele, oh no no no noooo.


Hablo español.





Comments


Popular Mana tabs & chords
Manda Una Seal Bass Tabs
Oye Mi Amor 1 Bass Tabs
La Puerta Azul 2 Chords
Mariposa Traicionera Chords
Buscandola Tabs
Mariposa Traicionera Tabs
Ojala Y Pudiera Borrarte Tabs
Vivir Sin Aire Intro Tabs
Como Diablos Ukulele
Se Me Olvid Otra Vez Ukulele


Song lyrics



↑ Back to top | Tablatures and chords are parodies/interpretations of the original songs. You may use it for private study, scholarship, research or language learning purposes only
© 2014 AZChords.com Contact us | Privacy policy | DMCA | Add/correct tabs | Request tabs | Top 50 tabs