» » »

Mana, Clavado En Un Bar Bass tabs (ver.1)

Artists:  A B C D E F G H I J K L M N O P Q R S T U V W X Y Z # 

Clavado En Un Bar Bass tabs (ver.1)

Mana Tabs
 Rating:
4.2/5 (5 votes)
Clavado En Un Bar lessons Tabs too difficult? Try these video lessons and learn fast
                Intro:
(entra primero guitarra sola, después el bajo con esto):

G |--------------------------------------------------------|
D |--------------------------------------------------------|
A |--------7-----9-9-------7------11(mantener nota)--------|
E |--7-7-7---7-7-----7-7-7---7-7---------------------------|


Verso: (es con un rítmo como calypso o reggae)
G |--------------------------------------------------------|
D |--------------------------------------------------------|
A |--1/2-2-2---1/2-2-2-------------------------------------|
E |----------------------1/2-2-2---1/2-2-2---2/4-4-4---2/4-|


G |--------------------------------------------------------|
D |--------------------------------------------------------|
A |--------6/7-7-7---6/7-7-7---1/2-2-2---1/2-2-2-----------|
E |--4-4-------------------------------------------1/2-2-2-|


G |--------------------------------------------------|-----|
D |--------------------------------------------------|-----|
A |--------------------------------6/7-7-7---6/7-7-7-|-9-9-|
E |--1/2-2-2---2/4-4-4---2/4-4-4---------------------|-----|


Pre-Chorus:
G |--------------------------------------------------------|
D |--------------------------------------------------------|
A |--2-0-----------2---------------6-6-6-6-6/7-7-7-7-7\6-6-|
E |------2/4-4-4-4---0-1/2-2-2-2---------------------------|


G |--------------------------------------------------------|
D |--------------------------------------------------------|
A |--6-6-6/7-7-7-7-7/8/9---9---9---9-7---------------------|
E |--------------------------------------------------------|


Coro:
G |--------------------------------------------------------|
D |--------------------------------------------------------|
A |--2-2-2-2-2-2---2---2-2/4/6-6-6-6-6---6---6-4-----------|
E |----------------------------------------------6-4-4-4-4-|


G |---------------------------------------------------------|
D |---------------------------------------------------------|
A |-------7-7-7-6/7-7-7-6\2-2-2-2-2-2-2---2---2-2/4/6-6-6-6-|
E |--4/6----------------------------------------------------|


G |---------------------------------------------------------|
D |---------------------------------------------------------|
A |--6-6-6-4---------------7-7-7-6/7-7-7-6------------------|9(mantener nota)
E |----------6-4-4-4-4-4/6----------------------------------|


Post Chorus:
G |--------------------------------------|
D |--------------------------------------|
A |-------7-----7-9-9-------7-----7-9-9--|
E |-7-7-7---7-7-------7-7-7---7-7--------|


Verso 2:
G |--------------------------------------------------------|
D |--------------------------------------------------------|
A |--2-2-2-2-2-2-2-2-2/8/9-9-9-9-9-9-9-9-9/10/11-11-11-11--|
E |--------------------------------------------------------|


G |---------------------------------------------------------|
D |---------------------------------------------------------|
A |--11-11-11-11-11\9\7-7-7-7-7-7-7-7-7-0-------------------|
E |---------------------------------------7-7-7-7-7-7-7-7/9-|


G |--------------------------------------------------------|
D |--------------------------------------------------------|
A |--9-9-9-9-9-9-9-9-9/10/11-11-11-11-11-11-11-11-11\7-7-7-|
E |--------------------------------------------------------|


G |----------------|---------------------------------------|
D |----------------|---------------------------------------|
A |--7-7-7-7-7-7-7-|-9-9-----------------------------------|
E |----------------|---------------------------------------|


*TOCAR:
       PRE-CHORUS
       CORO '+ una ronda de mas'

Post Chorus:
G |--------------------------------------------------------|
D |--------------------------------------------------------|
A |--7-7-5---4-4-4-4-4-4-4-4-4-4-4-4-7-7-7-7-7-7-7-7-7-7-7-|
E |--------------------------------------------------------|


G |---------------------------------------------------------|
D |---------------------------------------------------------|
A |--7-------------------------6-6-6-6-6-6-6-6-6-6-6-6----4-|
E |----7-7-7-7-7-7-7-7-7-7-7-7--------------------------7---|


G |--------------------------------------------------------|
D |--------------------------------------------------------|
A |--4-4-4-4-4-4-4-4-4-4-4-7-7-7-7-7-7-7-7-7-7-7-7---------|
E |------------------------------------------------7-7-7-7-|


G |--------------------------------------------------------|
D |--------------------------------------------------------|
A |------------------9-9-9-9-9-9-9-9-9-9-9-9---------------|
E |--7-7-7-7-7-7-7-7---------------------------------------|


Solo:
G |--------------------------------------------------------|
D |--------------------------------------------------------|
A |--2-2-2-2-2-2-2-2-2-0-----------------------------------|
E |----------------------2-2-2-2-2-2-2-2-2/3/4-4-4-4-4-4-4-|


G |---------------------------|
D |---------------------------|    (Todo esto x2)
A |--------6/7-7-7\6/7-7-7-6--|
E |--4-4/6--------------------|


*TOCAR:
       1er VERSO (RITMO REGGAE)
       CORO
       INTRO x2
            
Submit corrections

comments powered by Disqus
↑ Back to top | Mana Bass for Clavado En Un Bar. Lyrics for acoustic guitar and electric guitar. Tablatures and chords are parodies/interpretations of the original songs. You may use it for private study, scholarship, research or language learning purposes only