» » »

Mana, Bendita Tu Luz Tabs (ver.2)

Artists:  A B C D E F G H I J K L M N O P Q R S T U V W X Y Z # 

Bendita Tu Luz Tabs (ver.2)

Mana Tabs
Rating:
4/5 (7 votes)
Bendita Tu Luz lessons Tabs too difficult? Try these video lessons and learn fast
                Intro

   G           	   D/F#             Em7       		C     D7
e----------------|----------------|----------------|----------------|
A-----3----------|----3-----------|----3-----------|-----------1----|
D-------0--------|------2---------|------0---------|-----0-----2---0|
G---0------------|--0-------------|--0-------------|---0-2---4------|
B----------------|----------------|--------------2-|-3-----5--------|
E-3--------------|2---------------|0---------------|----------------|

   G           	   D/F#             Em7       		C     D7
e----------------|----------------|----------------|----------------|
A-----3----------|----3-----------|------3---------|-----------1----|
D-------0--------|------2---------|------0---------|-----0-----2---0|
G---0------------|--0-------------|----4-----------|---0-2---4------|
B----------------|----------------|--2-------------|-3-----5--------|
E-3--------------|2---------------|0---------------|----------------|


Verso I   			Arpegios:  (A) (B) (C)

(A)	G       D/F#        Em7      C        D7
	Bendito el lugar y el motivo de estar ahí
(B)	G       D/F#         Em7     C  D7
	Bendita la coincidencia

(a partir de ahora entra otra guitarra, que rasguea los acordes)

(C) 	G           D/F#     Em7     C      D7
	Bendito el reloj que nos puso puntual ahí
	G       D/F#          Em7    C  D7
	Bendita sea tu presencia

       G           	D/F#             Em7       	 C     D7
     e----------------|----------------|----------------|----------------|
     A-------3--------|------3---------|------3---------|-----------1----|
(A)  D-----0----------|----2-----------|----0-----------|-----0-----2---0|
     G---0------------|--0-------------|--0-------------|---0-2---4------|
     B----------------|----------------|----------------|-3-----5--------|
     E-3--------------|2---------------|0---------------|----------------|

       G           	D/F#             Em7       	 C     D7
     e----------------|----------------|----------0-----|----------------|
     A-------3--------|------3---------|------3-----3---|-----------1----|
(B)  D-----0---0------|----2---2-------|----0-0-------0-|-----0-----2---0|
     G---0------------|--0-------------|--0-------------|---0-2---4------|
     B----------------|----------------|----------------|-3-----5--------|
     E-3--------------|2---------------|0---------------|----------------|

       G           	D/F#             Em7       	 C     D7
     e-------3--------|----------2-----|----------0-----|----------------|
     A-------3--------|------3-----3---|------3-----3---|-----------1----|
(C)  D-----0---0------|----2-2-------2-|----0-0-------0-|-----0-----2---0|
     G---0------------|--0-------------|--0-------------|---0-2---4------|
     B----------------|----------------|----------------|-3-----5--------|
     E-3--------------|2---------------|0---------------|----------------|


Pre- Coro  (Entra batería, demás instrumentos y la voz de Juan L.Guerra)

	(Acordes al aire)

Em       D             C      G      D
Bendito Dios por encontrarnos en el camino
Em             D        C         D7
Y de quitarme esta soledad de mi destino


Coro
            G   D/F#
Bendita la luz
            Am          C
Bendita la luz de tu mirada (bis)
    D        G
...desde el alma


(1º Solo)

 G 		   D/F# 	      Em7 		C
e----------------|----------------|--3---3-3-5---5-|5---3-5-7---8---|
A---------------8|----7..---------|----------------|----------------|
D-----------4/7—-|7---------------|--4---4-4-5---5-|5---4-5-7---9---|
G----------------|--9-------------|----------------|----------------|
B----------------|----------------|----------------|----------------|
E----------------|----------------|----------------|----------------|

 G 		   D/F# 	    Em7 	     C  	     G
e--7.----78107810|10/12\10----7-5-|5---7-3---5-2---|----3---2-------|------|
A----------------|------------8-7-|7---8-5---7-3---|5-5-5---3---5---|3-----|
D-7.-----------—-|----------7-----|----------------|5-5---2-----5---|0-----|
G----------------|----------------|----------------|----------------|------|
B----------------|----------------|----------------|----------------|------|
E----------------|----------------|----------------|----------------|------|

Verso II

G              D/F#
Benditos ojos que me esquivaban
Em           D
simulaban desdén, que me ignoraban
G             	 D/F#
Y de repente sostienes la mirada
Em           D
Di ran diri da ran di ri rin…

Pre- Coro

Em(7º)  D(5º)         C(3º)   G      D
Bendito Dios por encontrarnos en el camino
Em (7º)         D(5º)   C(3º)       D7			 G
Y de quitarme esta soledad de mi destino  (fill)

				     e---7--78-7810/1210|---|
				     A-810-10-----------|---|
				     D------------------|---|
				     G------------------|---|
				     B------------------|---|
				     E------------------|---|
Coro
            G   D/F#
Bendita la luz
            Am          C		    D
Bendita la luz de tu mirada  (bis)   	... oh


Puente
G                       D/F#
Gloria divina de esta suerte, del buen tino
F                           Am
De encontrarte justo ahí en medio del camino
D/F#                                 G         Em         Em/F#
Gloria al cielo de encontrarte ahora,  llevarte mi soledad
      Am/F#          Em/G  Am/F#             G
y coincidir en mi destino,    en el mismo destino... Epale!  (2º Solo)
Arpegios del Puente:

   G  (x2)          D/F#             		       F (x2)      	 Am
e----------------|----------------|----------------|----------------|----------------|
A-------3--------|------3---------|------3-----3---|------1---------|------1---------|
D-----0-----0----|----2-----2-----|----2-----2---2-|----2---2-------|----2-----2-----|
G---0------------|--0-------------|--0-------------|--3-------------|--2---------2---|
B----------------|----------------|----------------|----------------|0---------------|
E-3--------------|2---------------|2---------------|1---------------|----------------|

   Am             D/F#             		        G       	 Em
e----------------|-------2--------|-------2--------|----------------|----------------|
A-------1--------|-----3-----3----|-----3-----3----|------0---------|------0---------|
D-----2----------|---2------------|---2------------|----0-----0-----|----0-----0-----|
G---2---------2--|-0--------------|-0--------------|--0-------------|--2-------------|
B-0---------0---0|----------------|----------------|----------------|----------------|
E----------------|(2)-------------|----------------|3---------------|0---------------|
   Em/F#            Am/F#           Em/G       	    Am/F#
e----------------|----------------|----------------|----------------|
A-------0--------|------1---------|------0---------|------1---------|
D-----0-----0----|----2-----2-----|----0-----0-----|----2-----2-----|
G---2------------|--2-------------|--2-------------|--2-------------|
B----------------|----------------|----------------|----------------|
E-2--------------|2---------------|3---------------|2---------------|

 (2º Solo)

   G 		     D/F# 	      Am 	      C 	   D
e------------------|----------------|---------5---5--|3---2---0-------|
A------------------|----------------|-----587--------|------------3---|
D-----0-4-7—5-4-5-5|p4--------------|--457------5---4|--2---0---------|
G---0--------------|----7-7---------|-7--------------|----------4-----|
B------------------|----------------|----------------|----------------|
E------------------|----------------|----------------|----------------|

   G 		   D/F# 	   Am 	            C	           D
e---------7---5-3|3-2--2-/-5------|----------5---57|--578p75--------|
A---8-7-8--------|----------------|--578---78---8--|-8------8p75----|
D---7-5-7-7---5-4|4-2--2—/-5------|----------------|------------7---|
G----------------|----------------|----------------|----------------|
B----------------|----------------|----------------|----------------|
E----------------|----------------|----------------|----------------|

Coro
 		(Y el final, con los mismos acordes del coro G  D/F# Am C)

Bendita la luz
Bendita la luz de tu mirada (bis)

Bendita mirada oh oh
Bendita mirada desde el alma

Tu mirada oh oh
Bendita bendita bendita mirada
Bendita tu alma y bendita tu luz

Tu mirada oh oh
Oh oh, te digo es tan bendita tu luz
Amor, amor…

Tu mirada oh oh
Bendito el reloj y bendito el lugar
Benditos tus besos cerquita del mar

Tu mirada oh oh
Amor, amor,
Que bendita tu mirada
tu mirada amor.


Espero que la disfruten. Es mi primera aportación de tab en esta página, y he intentado 
lo más completa posible.
Saludos, Pedro.
            

comments powered by Disqus
↑ Back to top | Mana Tabs for Bendita Tu Luz. Lyrics for acoustic guitar and electric guitar. Tablatures and chords are parodies/interpretations of the original songs. You may use it for private study, scholarship, research or language learning purposes only