>
 >
Arde El Cielo 1

Arde El Cielo 1 Guitar Tabs

Mana - Arde El Cielo 1 chords, tabs, tablatures, lyrics

Guitar lessons | Add/correct | Request | Top 50 tabs Artists:  A B C D E F G H I J K L M N O P Q R S T U V W X Y Z 0-9

Arde El Cielo 1 Guitar Tabs – Mana

CD, Sheet music, Poster

Do you like Arde El Cielo 1? Share with your friends now
ChordsTabsTabs v2Ukulele
INTRO:

GUITARRA 2:

E|-------|--5-5--5-5-5-5-|-7--7--|-4-4--4-4-4-4-|
A|-3-/-4-|--7-7--7-7-7-7-|-9--9--|-6-6--6-6-6-6-|
D|-5-/-6-|--7-7--7-7-7-7-|-9--9--|-6-6--6-6-6-6-| x3
G|-5-/-6-|---------------|-------|--------------|
B|-------|---------------|-------|--------------|
e|-------|---------------|-------|--------------|

DESPUES DE TOCAR LAS TRES VECES TERMINA ASI:

E|-------|--5-5--5-5-5-5-|-7--7--7|-7-5-4-0---|
A|-3-/-4-|--7-7--7-7-7-7-|-9--9--9|-9-7-6-2-4-|
D|-5-/-6-|--7-7--7-7-7-7-|-9--9--9|-9-7-6-2-6-|
G|-5-/-6-|---------------|--------|---------6-|
B|-------|---------------|--------|-----------|
e|-------|---------------|--------|-----------|


GUITARRA 1:

E|-------|--------------|-7--7--|---------------|
A|-3/--4-|--------------|-9--9--|---------------|
D|-5/--6-|--------------|-9--9--|---------------|
G|-5/--6-|-6-6--6-6-6-6-|-------|-4-4--4-4-4-4--| x3
B|-------|-5-5--5-5-5-5-|-------|-4-4--4-4-4-4--|
e|-------|-5-5--5-5-5-5-|-------|-4-4--4-4-4-4--|

DESPUES DE LA 3 VEZ, TERMINA ASI:

E|-------|--------------|
A|-3/--4-|--------------|
D|-5/--6-|--------------|
G|-5/--6-|-6-6--6-6-6-6-|
B|-------|-5-5--5-5-5-5-|
e|-------|-5-5--5-5-5-5-|


VERSO:


GUITARRA 2 (00:21-00:58)

E|-------|--x-x-x-5-5---|-x-x-7-|-x-x-x--7-7-|
A|-x-x-4-|--x-x-x-7-7---|-x-x-9-|-x-x-x--9-9-|
D|-x-x-6-|--x-x-x-7-7---|-x-x-9-|-x-x-x--9-9-|
G|-x-x-6-|--------------|-------|------------|
B|-------|--------------|-------|------------|
e|-------|--------------|-------|------------|


Nos fue tragando la rutina
Fue llenando de vacíos
Fuimos ahogando la palabra
Y explotando en puros líos…


GUITARRA 1 (00:40-00:58)

E|---------------------------------------------|
A|---------------------------------------------|
D|--------------------------11-----13------13--| X2
G|---9---9---9----11--9----9-----11------11----|
B|--9---7---7---10---9-9—10----12------12------|
e|-9---7---7---9-------------------------------|

Te deseo suerte amor
Ya me voy ya lo olvido
Solo le pido a Dios
Darte alivio.

DESPUES DEL VERSO Y ANTES DEL CORO SE TOCA LO QUE SIGUE
 LO SEÑALARE CON UN (*) PUES SE TOCA MÁS ADELANTE:

(*)

GUITARRA 2

E|--2----|-2-2--4-5-----|
A|--4----|-4-4--6-7-----|
D|--4----|-4-4--6-7-----|
G|-------|--------------|
B|-------|--------------|
e|-------|--------------|

GUITARRA 1

E|----------------------|
A|----------------------|
D|----------------------|
G|----------------------|
B|--10--10-----12-------|
e|----------12----------|


Coro.

AQUÍ SE TOCA IGUAL QUE EN EL INTRO

GUITARRA 2 (C#m, A, B, G#m)


E|-------|--5-5--5-5-5-5-|-7--7--|-4-4--4-4-4-4-|
A|-3-/-4-|--7-7--7-7-7-7-|-9--9--|-6-6--6-6-6-6-|
D|-5-/-6-|--7-7--7-7-7-7-|-9--9--|-6-6--6-6-6-6-| X3
G|-5-/-6-|---------------|-------|--------------|
B|-------|---------------|-------|--------------|
e|-------|---------------|-------|--------------|


GUITARRA 1

E|-------|--------------|-7--7--|---------------|
A|-3/--4-|--------------|-9--9--|---------------|
D|-5/--6-|--------------|-9--9--|---------------| X3
G|-5/--6-|-6-6--6-6-6-6-|-------|-4-4--4-4-4-4--|
B|-------|-5-5--5-5-5-5-|-------|-4-4--4-4-4-4--|
e|-------|-5-5--5-5-5-5-|-------|-4-4--4-4-4-4--|

TERMINAN DE LA MISMA MANERA QUE EL INTRO.


   Arde
   Arde el cielo y el dolor
   Arde mi espíritu
   Arde el amor y la luz
   Arde el cielo amor…


VERSO

GUITARRA 2

(1:25-2:02)

E|-------|--x-x-x-5-5---|-x-x-7-|-x-x-x--7-7-|
A|-x-x-4-|--x-x-x-7-7---|-x-x-9-|-x-x-x--9-9-|
D|-x-x-6-|--x-x-x-7-7---|-x-x-9-|-x-x-x--9-9-|
G|-x-x-6-|--------------|-------|------------|
B|-------|--------------|-------|------------|
e|-------|--------------|-------|------------|


GUITARRA 1

(1:25-1:43)

E|-----------------------|
A|-----------------------|
D|-----------------------| x4
G|---------6----8----8---|
B|---5----5----7----7---—|
e|--4-4--5----7----7-----|

Salio el halcón
Salio el demonio
Un infierno, un manicomio
Gritos, violencia, platos rotos
Como ciega la demencia



(1:44-2:02)



E|---------------------------------------------|
A|---------------------------------------------|
D|--------------------------11-----13------13--| X2
G|---9---9---9----11--9----9-----11------11----|
B|--9---7---7---10---9-9—10----12------12------|
e|-9---7---7---9-------------------------------|


Solo yo te pido amor
Que nunca te abandones
Solo le pido a dios,
Darte alivio

SE TOCA (*) COMO YA HABIA SIDO MENCIONADO ARRIBA.


CORO

SE TOCA IGUAL QUE EL INTRO PARA LAS DOS GUITARRAS.


Arde
Arde el cielo y el dolor
Arde mi espíritu
Arde el amor y la luz
Arde el cielo amor
Sangra, sangra el cielo y la luz
Sangra mí espíritu
Arde el amor y la luz
Arde el cielo amor




*SOLO
   (02:46)


GUITARRA 1

E|-2/4-4-4-4-7-7-7------------------------|
A|-4/6-6-6-6-9-9-9-9--9--4-4-4-4----------|
D|-4/6-6-6-6-9-9-9-11-11-6-6-6-6----------|x4
G|-----------------11-11-6-6-6-6----------|
B|----------------------------------------|
e|----------------------------------------|

GUITARRA 2

E|----------------------------------------|
A|----------------------------------------|
D|----------------------6---6-6~~---------|
G|--6^888877776666~~--4---4---------------|
B|---------------------------------7b9~~--|
e|----------------------------------------|


  (Muy rápido)
E|----------------------------------------|
A|----------------------------------------|
D|--------------------------------6-------|
G|------------6--4----------6--4----6^7---|
B|-------7--4----------7--4---------------|
e|--7--4------------4---------------------|


DESPUES DEL SOLO LA GUITARRA 1 SIGUE ESTO:

E|--2--22--4--5----------|
A|--4--44--6--7----------|
D|--4--44--6--7----------|
G|-----------------------|
B|-----------------------|
e|-----------------------|

LA GUITARRA 1 TOCA EL INTRO HASTA EL FINAL DE LA CANCION
Y LA GUITARRA 2 LA ACOMPAÑA HASTA EL MIN. 3:54.

Arde
Arde el cielo y el dolor
Arde mi espíritu
Arde el amor y la luz
Arde el cielo amor
Sangra, sangra el cielo y la luz
Sangra mí espíritu
Arde el amor y la luz
Arde el cielo amor



EN EL MINUTO 3:57 LA GUITARRA 2 EMPIEZA A TOCAR LO QUE SIGUE
CON EL SIGUIENTE TEXTO.
LA GUITARRA 1 SIGUE TOCANDO EL INTRO HASTA EL FINAL.

Trozos del cielo en ardor
Trozos del cielo en ardor
Se esta quemando el cielo yaaaaaaaaa…

E|----------------------------------------------------|
A|----------------------------------------------------|
D|----------------------------------------------------|
G|-6---6---6---4---4--4---6---6---6-------------------|
B|---5-------5---5------5---5-------5-4-5-4--4-5------|
e|-------7-----------7----------7-----------4---------|

E|----------------------------------------------------|
A|----------------------------------------------------|
D|----------------------------------------------------| X2
G|-6---6---6---4---4---4---6---6---6------------------|
B|---5-------5---5---7---5---5-------5-4-5-4---4-5----|
e|-------7-----------------------7-----------4--------|





Comments


Popular Mana tabs & chords
De Piez A Cabeza 3 Bass Tabs
Amor Clandestino Chords
Cuando Los Ngeles Lloran Chords
Contra Todo Intro Tabs
El Verdadero Amor Perdona Tabs
Me Voy A Convertir En Un Ave Tabs
Porque Te Vas 1 Tabs
En El Muelle De San Blas Ukulele
Labios Compartidos Ukulele
Rayando El Sol Ukulele


Song lyrics



↑ Back to top | Tablatures and chords are parodies/interpretations of the original songs. You may use it for private study, scholarship, research or language learning purposes only
© 2014 AZChords.com Contact us | Privacy policy | DMCA | Add/correct tabs | Request tabs | Top 50 tabs