>
 >
Angel De Amor 1

Angel De Amor 1 Guitar Tabs

Mana - Angel De Amor 1 chords, tabs, tablatures, lyrics

Guitar lessons | Add/correct | Request | Top 50 tabs Artists:  A B C D E F G H I J K L M N O P Q R S T U V W X Y Z 0-9

Angel De Amor 1 Guitar Tabs – Mana

CD, Sheet music, Poster

Do you like Angel De Amor 1? Share with your friends now
Bass TabsChordsTabsTabs v2Tabs v3Tabs v4Tabs v5Ukulele
*--------------------------------*
|    ***MANA***                  |
|  *Angel de Amor*               |
*--------------------------------*

b=BEND
p=PULL OFF
h=HAMMER ON
~=VIBRATE

INTRO
GUIT. 2        3 TIMES      
E---------------||--9-10-9------------|
B----12-10-12---||---------12---------|
G---9--9--9--9--||---9--9-9--9--------|
D---------------||--------------------|
A---------------||--------------------|
E---------------||--------------------|

HERE ENTERS GUIT. 1 (5 TIMES)
 GUIT.2  3 TIMES
E---------------||-----------------------|
B----12-10-12---||--9-10-12-9------------|
G---9--9--9--9--||---9--9--9-9-----------|
D---------------||-----------------------|
A---------------||-----------------------|
E---------------||-----------------------|  

  GUIT. 2
E-------------------|---------------------------|
B-----10-12-9-10-9--|---------------------------|
G---11--9--9-9----9-|----11--13-\--9-\--7-\-6---|
D-------------------|--11--11---\-9--\-7--\--7--|
A-------------------|---------------------------|
E-------------------|---------------------------|

GUIT.1 FIG. 1
E----------------------------------------|
B----------------------------------------|
G-11-11-11-11\-7-7-X-9-X-X-\-6-6-6-/-----|
D-11-11-11-11\-7-7-X-9-X-X-\-6-6-6-/-----|
A-9--9--9-9-\-5-5-X-7-X-X-\-4-4-4-/-----|
E----------------------------------------|

GUIT.1
E----------------------------|---------------------------------|
B---------2---0---5---0---2--|-----2---0-----------------------|
G----------------------------|---------------7-7-7-7--9-9-9-9--|
D------4-4-X-4-X-4-X-4-X-4---|--4-4-X-4-X-4--7-7-7-7--9-9-9-9--|
A----------------------------|---------------5-5-5-5--7-7-7-7--|
E----------------------------|---------------------------------|


VERSE 1

GUITAR 1 FIG. 2                  2 TIMES
E-------------------------------------------|
B-------------------------------------------|
G-------11---------7---------6---------7-6--|
D---11--11---X-----7---X-----7---X-----7-7--| 
A--9------------5---------0---------7-------|
E-------------------------------------------|


GUITAR 2  RIFF 1  (OVER FIG. 1 2nd TIME)
E-------------------------------|
B-------9-----7-----------------|
G-----6---6-----6---9--67p6----|
D---7-------7-----7-------------|
A-------------------------------|
E-------------------------------|       


GUITAR 1  FIG.2                  2 TIMES
E-------------------------------------------|
B-------------------------------------------|
G-------11---------7---------6---------7-6--|
D---11--11---X-----7---X-----7---X-----7-7--| 
A--9------------5---------0---------7-------|
E-------------------------------------------|


GUITAR 2 RIFF 2  (OVER FIG.1 2nd TIME)

E---------------------------------|
B--------10------12------9---10---|
G-----------9-------9------9------|
D---9h11------11------11----------|
A---------------------------------|
E---------------------------------|


GUITAR 2 RIFF 3  (OVER FIG.1 4th TIME)
E--------------------------------------|
B--------10------12--------------------|
G-----------9-------9----------9-------|
D---9h11------11------11--9h11---11-9--|
A--------------------------------------|
E--------------------------------------|
                       

PRE CHOURS
E---------------------------------------|
B---------------------------------------|
G---7-7-7---9-9-9-----------------------|
D---7-7-7---9-9-9----11-11-11-----------|
A---5-5-5---7-7-7---11-11-11--------9--|
E--------------------9--9--9----9-12----|


CHOURS
GUIT.2          3 TIMES     
E---------------||--9-10-9------------|
B----12-10-12---||---------12---------|
G---9--9--9--9--||---9--9-9--9--------|
D---------------||--------------------|
A---------------||--------------------|
E---------------||--------------------|
                                      
                                      
GUIT.1  FIG. 1            3 TIMES
E----------------------------------------|
B----------------------------------------|
G-11-11-11-11\-7-7-X-9-X-X-\-6-6-6-/-----|
D-11-11-11-11\-7-7-X-9-X-X-\-6-6-6-/-----|
A-9--9--9-9-\-5-5-X-7-X-X-\-4-4-4-/-----|
E----------------------------------------|


GUIT.2 GUIT.1
E-------------------------------------|
B-------------------------------------|
G-/-11-\-7-\-6-7-/-9------------------|
D-/-11-\-7-\-6-7-/-9------------------|
A-/-9--\-5-\-4-5-/-7------------------|
E-------------------------------------|


VERSE (2 TIMES)
PRE CHOURS
CHOURS (2 TIMES)


SOLO

PART 1
E----X--X-X-X-X-X--X-X-X-X-X--XX-X-X--4/-7--5-----||
B----X--X-X-X-X-X--X-X-X-X-X--XX-X-X--4/-7--5-----||
G----2--X-2-2-2-2--X-2-2-2-2--X-2-2-2--------------||
D--------------------------------------------------||
A--------------------------------------------------||
E--------------------------------------------------||

E----X--X-X-X-X-X--X-X-X-X-X--XX-X-X--------------||
B----X--X-X-X-X-X--X-X-X-X-X--XX-X-X--------------||
G----2--X-2-2-2-2--X-2-2-2-2--X-2-2-2--4b-62~-----||
D--------------------------------------------------||
A--------------------------------------------------||
E--------------------------------------------------|| 2 TIMES

PART 2
E-------------------------|
B-----------9-10-9--------|
G-------11--------9-11----|
D----/11--11----------11\-|
A-------------------------|
E-------------------------|
          
E---------------------------------------------------|
B---------9-10--12/14b--12p10h12~~~-----------------|
G-----11--------------------------------------------|
D--/11--11------------------------------------------|
A---------------------------------------------------|
E---------------------------------------------------|

E-------2p0---------------------XX-X-----------------|
B-----------2p0-----------------XX-X-----------------|
G---4b6---------4p2-----4-2~--4-XX-X--------2--------|
D-------------------4p2-------------4p2-------4~-----|
A---------------------------------------4-2----------|
E----------------------------------------------------|


PART 3
E----/-14-14-X-14--14-14-14-X-14--14-14-\12--|
B----/-14-14-X-14--14-14-14-X-14--14-14-\12--|
G--------------------------------------------|
D--------------------------------------------|
A--------------------------------------------|
E--------------------------------------------|

E----12-12-12-12-X-12-12-12-12-12-12-X-12-12-12-12/-14\--|
B----12-12-12-12-X-12-12-12-12-12-12-X-12-12-12-12/-14\--|
G--------------------------------------------------------|
D--------------------------------------------------------|
A--------------------------------------------------------|
E--------------------------------------------------------|

PART 4
E-----------------------------------------------------|
B---------2-----0-----5-----0-----2-------2-----0-----|
G-----------------------------------------------------|
D-----4-4---4-4---4-4---4-4---4-4---4-4-4---4-4---4---|
A-----------------------------------------------------|
E-----------------------------------------------------|

E-----------------------------------------------------|
B-----------------------------------------------------|
G---7-7-7-7---9-9-9-9---------------------------------|
D---7-7-7-7---9-9-9-9---------------------------------|
A---5-5-5-5---7-7-7-7---------------------------------|
E-----------------------------------------------------|2 TIMES


GUIT. 1  FIG. 1  ALONE 
E----------------------------------------|
B----------------------------------------|
G-11-11-11-11\-7-7-X-9-X-X-\-6-6-6-/-----|
D-11-11-11-11\-7-7-X-9-X-X-\-6-6-6-/-----|
A-9--9--9-9-\-5-5-X-7-X-X-\-4-4-4-/-----|
E----------------------------------------|2 TIMES


CHOURS (2 TIMES)

WELL, THAT'S THE WHOLE SONG. 
I'M SURE IT'S 99% CORRECT.





Comments


Popular Mana tabs & chords
Corazon Espinado Bass Tabs
De Pies A Cabeza 2 Bass Tabs
Amor Clandestino Chords
Clavado En Un Bar Chords
Amame Hasta Que Me Muera Tabs
Corazon Espinado Tabs
La Sirena 2 Tabs
Manda Una Senal Tabs
Como Te Deseo Ukulele
Me Vale Ukulele


Song lyrics



↑ Back to top | Tablatures and chords are parodies/interpretations of the original songs. You may use it for private study, scholarship, research or language learning purposes only
© 2014 AZChords.com Contact us | Privacy policy | DMCA | Add/correct tabs | Request tabs | Top 50 tabs