» » »

Angel De Amor Bass tabs (ver.1)

Artists:  A B C D E F G H I J K L M N O P Q R S T U V W X Y Z # 

Angel De Amor Bass tabs (ver.1)

Mana
Rating:
5/5 (1 vote)

Hard to play? Try these video lessons and learn fast.
                INTRO
G|---------|
D|---------|
A|---------|
E|-12/2----|

G|----------------------------------------------------------------|
D|-----------------------2-4--------------------------------------|
A|---------4-5-7-7-7-4-4-------------4-5-7-7-7-4-4-2-0------------|
E|-2-2-2-2------------------2-2-2-2--------------------22222222---|

G|------------------------------|
D|------------------------------|
A|----------555555-7777777------|
E|-0H2222222----------------5/0-|


ETROFA (Entra en la segunda parte)

G|-------------|-------------|-------------|
D|-4-----------|-4-----------|-4-----------|
A|---5-----7-7-|---5---------|---5-----7-7-|
E|-----5-5-----|-----5-5-4-4-|-----5-5-----|

G|----------------|
D|-4--------------|
A|---5------------|
E|-----5-5-5-4//0-|

PRE-CORO

G|----------------------------------------|
D|------------------------------------2-4-|
A|-55555555555555-5-5-77777777-4-44-4-----|
E|---------------5-5----------------------|

CORO

G|-----------------------------------------------------|
D|---------------------2-4-----------------------------|
A|---------5-7-7-7-4-4--------------5-7-7-7-4-4-2-0----|
E|-2-2-2-2------------------2-2-2-2--------------------|

G|------------------------------------------------|
D|---------------------2-4--------------------5/9-|
A|---------5-7-7-7-4-4--------------5-4-5-7-------|
E|-2-2-2-2------------------2-2-2-2---------------|


ESTROFA
G|---------------|---------------|---------------|-----------------|
D|-4-------------|-4-----------7-|-4-------------|-4---------------|
A|---5-5---------|---5-5----7-7--|---5-5---------|---5-5-----7-7-7-|
E|-------5-5-4-4-|------5-5------|-------5-5-4-4-|-------5-5----7--|

G|---------------|---------------|---------------|-----------------|
D|-4-------------|-4-----------7-|-4-------------|-4---------------|
A|---5-5---------|---5-5----7-7--|---5-5---------|---5-5-----7-7-7-|
E|-------5-5-4-4-|------5-5------|-------5-5-4-4-|-------5-5----7--|


PRE-CORO

G|----------------------------------------|
D|------------------------------------2-4-|
A|-55555555555555-5-5-77777777-4-44-4-----|
E|---------------5-5----------------------|

CORO

G|--------------------------------------------------------|
D|-----------------------2-4------------------------------|
A|---------4-5-7-7-7-4-4--------------4-5-7-7-7-4-4-2-0---|
E|-2-2-2-2--------------------2-2-2-2---------------------|

G|--------------------------------------------------------|
D|-----------------------2-4--------------------6/9-9-7-6-|
A|---------4-5-7-7-7-4-4--------------4-5-7-7-7-----------|
E|-2-2-2-2--------------------2-2-2-2---------------------|

G|--------------------------------------------------------|
D|-----------------------2-4------------------------------|
A|---------4-5-7-7-7-4-4--------------4-5-7-7-7-4-4-2-0---|
E|-2-2-2-2--------------------2-2-2-2---------------------|

G|-----------------------------------------------------------|
D|-----------------------2-4------------------------2-4------|
A|---------4-5-7-7-7-4-4--------------4-5-7-7-7-4-4----------|
E|-2-2-2-2--------------------2-2-2-2-------------------5/0--|


SOLO

G|--------------|
D|--------------|
A|--------------|
E|-0-2-22-0-2---|  x2

G|------------------|
D|------------------|
A|-5-5-55-5-5-------|
E|-------------5/14-|

G|--------------------------------------------------------|
D|-----------------------2-4------------------------------|
A|---------4-5-7-7-7-4-4--------------4-5-7-7-7-4-4-2-0---|
E|-2-2-2-2--------------------2-2-2-2---------------------|


PRE-CORO X 2

G|---------------------------------------------------|
D|---------------------------------------------------|
A|---------------------------5555555577777777--------|
E|2222222222222-0H222222222---------------------5/0--|

CORO

G|-------------------------------------------------------------|
D|----------------------------2-4--------------------6/9-9-7-6-|
A|--------------4-5-7-7-7-4-4--------------4-5-7-7-7-----------|
E|-2/14/2-2-2-2--------------------2-2-2-2---------------------|

G|--------------------------------------------------------|
D|-----------------------2-4------------------------------|
A|---------4-5-7-7-7-4-4--------------4-5-7-7-7-4-4-2-0---|
E|-2-2-2-2--------------------2-2-2-2---------------------|

G|-----------------------------------------------------------------|
D|-----------------------2-4--------------------1414141414141414/0-|
A|---------4-5-7-7-7-4-4--------------4-5-7-7-7—-------------------|
E|-2-2-2-2--------------------2-2-2-2------------------------------|

G|-----------------------------------------------------------------|
D|-----------------------2-4----------------------4-7-7-4----------|
A|---------4-5-7-7-7-4-4--------------4-5-7-7-7—-------------------|
E|-2-2-2-2--------------------2-2-2-2------------------------------|

G|-----------------------------------------------------------------|
D|-----------------------2-4----------------------4-7-7-4----------|
A|----9-9--4-5-7-7-7-4-4--------------4-5-7-7-7—-------------------|
E|----------------------------2-2-2-2------------------------------|

G|-----------------------------------------------------------------|
D|-----------------------2-4--------------------1414141414141414/0-|
A|----9-9--4-5-7-7-7-4-4--------------4-5-7-7-7—-------------------|
E|----------------------------2-2-2-2------------------------------|

G|-----------------------------------------------------------------|
D|-----------------------2-4----------------------4-7-7-4----------|
A|----9-9--4-5-7-7-7-4-4--------------4-5-7-7-7—-------------------|
E|----------------------------2-2-2-2------------------------------|

G|-----------------------------------------------------------------|
D|-----------------------2-4---------------------------------------|
A|----9-9--4-5-7-7-7-4-4----------------5-4-5-7----—---------------|
E|----------------------------2-2-2-2------------------------------|
            
Hard to play? Try these video lessons and learn fast. | Correct




comments powered by Disqus
↑ Back to top | Tablatures and chords are parodies/interpretations of the original songs. You may use it for private study, scholarship, research or language learning purposes only