>
 >
Angel De Amor

Angel De Amor Guitar Tabs

Mana - Angel De Amor chords, tabs, tablatures, lyrics

Guitar lessons | Add/correct | Request | Top 50 tabs Artists:  A B C D E F G H I J K L M N O P Q R S T U V W X Y Z 0-9

Angel De Amor Guitar Tabs – Mana

CD, Sheet music, Poster

Do you like Angel De Amor? Share with your friends now
Bass TabsChordsTabsTabs v2Tabs v3Tabs v4Tabs v5Ukulele
Banda: Maná
Canción: "Ángel de Amor"
Álbum: Revolución de Amor (2002)
Tabulado por: Joriel Vásquez
Afinación: Mí (Standard E)

Ésta es una de las mejores canciones de Maná aparte del otro gran repertorio q tiene,
se usan dos guitarras, pero yo me concentré mas en la guitarra principal q en la rítmica
pero de todos modos hay algo de la rítmica.

Intro: guitarra 1 (clean)
e|-----------------------------------9-10-9-------------------------------|
B|--12-10-12----12-10-12----12-10-12---x----12--12-10-12----12-10-12----12|
G|-9--9--9--9--9--9--9--9--9--9--9--9-9--9-9---9--9--9--9--9--9--9--9--9--|
D|------------------------------------------------------------------------|
A|------------------------------------------------------------------------|
E|------------------------------------------------------------------------|

e|---------------------------------------------------------|
B|-10-12-9-10-12-9---10---12---9----10---------------------|
G|9--9--9-9--9--9---9----9----9----9---11--13\--9-----7--6-|
D|-------------------------------------------------9-------|
A|---------------------------------------------------------|
E|---------------------------------------------------------|

e|------------------------------------|
B|------------------------------------|
G|-----------------------------9------| Usa un Delay aquí con una dist. 
D|-11--9--14--9--11---11--9--7--7-7-9-| leve.
A|------------------------------------|
E|------------------------------------|

Verso:1ra guitarra
e|------------------|-------------------|
B|---9---7---5--2\1-|---10---12---9--10-|  ---------|
G|--9---9---9-------|--9----9----9--9---|           |
D|-7---7---7--------|-9----9----9-------| x2        |
A|------------------|-------------------|           |
E|------------------|-------------------|           |
                                                    | Va junto.
2da guitarra (Palm mute)                            |
e|-----------------------|                          |
B|-----------------------|                          |
G|-----12-----7--7-7-7-7-| Figura el ritmo.         |
D|---12--12------7-7-7-7-|                          |
A|-10--------5---5-5-5-5-|  ------------------------|
E|-----------------------|
   ........  ..  .   .

e|--------------------------|
B|-10-----12----------------|
G|--9-----11---6-6-6--------|
D|--7------9---6-6-6--------|
A|-------------4-4-4--4-7-9-|
E|--------------------------|
 "Déjame curarte vida... déjame darte todo mi amor!"

Coro:
e|-----------------------------------9-10-9-------------------------------|
B|--12-10-12----12-10-12----12-10-12---x----12--12-10-12----12-10-12----12|
G|-9--9--9--9--9--9--9--9--9--9--9--9-9--9-9---9--9--9--9--9--9--9--9--9--|
D|------------------------------------------------------------------------|
A|------------------------------------------------------------------------|
E|------------------------------------------------------------------------|

e|-------------|
B|--10-10-10-9-|
G|9--9--9--9-9-|
D|-------------|
A|-------------|
E|-------------|

Verso 

Coro x2 

Break:
e|-----------------------------------------|
B|-10xx10xx1010xx10xx1010xx10x10-10/12-10b-|
G|--9xxx9xxx9x9xxx9xxx9x9xxx9xx9--9/11--9b-|
D|--7xxx7xxx7x7xxx7xxx7x7xxx7xx7--7//9--7b-| 
A|--7xxx7xxx7x7xxx7xxx7x7xxx7xx7--7//9--7b-|
E|-----------------------------------------|

e|-------------------------------------|
B|-10xx10xx1010xx10xx1010xx10x10-------|
G|--9xxx9xxx9x9xxx9xxx9x9xxx9xx9-------|
D|--7xxx7xxx7x7xxx7xxx7x7xxx7xx7-9b-7b-| 
A|--7xxx7xxx7x7xxx7xxx7x7xxx7xx7-------|
E|-------------------------------------|

e|-----------------------------------------|
B|-10xx10xx1010xx10xx1010xx10x10-10/12-10b-|
G|--9xxx9xxx9x9xxx9xxx9x9xxx9xx9--9/11--9b-|
D|--7xxx7xxx7x7xxx7xxx7x7xxx7xx7--7//9--7b-| 
A|--7xxx7xxx7x7xxx7xxx7x7xxx7xx7--7//9--7b-|
E|-----------------------------------------|

e|-------------------------------------|
B|-10xx10xx1010xx10xx1010xx10x10-------|
G|--9xxx9xxx9x9xxx9xxx9x9xxx9xx9-------|
D|--7xxx7xxx7x7xxx7xxx7x7xxx7xx7-9b-7b-| 
A|--7xxx7xxx7x7xxx7xxx7x7xxx7xx7-------|
E|-------------------------------------|

Solo:
e|--------------------------------|------------------------|
B|--------------------------------|------------------------|
G|-------------14-----------------|-------------14-16b-16b-|
D|-/16-16--18------18--14--16--11-|-/16-16--18-------------|
A|--------------------------------|------------------------|
E|--------------------------------|------------------------|

e|--------------------|
B|--------------------|
G|----11b-------------|
D|-9b-----9\7-7-9b-7b-|
A|--------------------|
E|--------------------|

e|-----------------------------------------------|
B|-14x1414x14x14\12x12x12x12x17x17x17-17x17x-19\-|
G|-13x1313x13x13\11x11x11x11x16x16x16-16x16x-18\-|
D|-11x1111x11x11\\9xx9xx9xx9x14x14x14-14x14x-16\-|
A|-11x1111x11x11\\9xx9xx9xx9x14x14x14-14x14x-16\-|
E|-----------------------------------------------|

Puente:
e|------------------------------------|
B|------------------------------------|
G|-----------------------------9------| Delay/dist.
D|-11--9--14--9--11---11--9--7--7-7-9-| (2x)
A|------------------------------------|
E|------------------------------------|

e|-----------------------|
B|-10--12-12--9-9--10-10-|
G|--9--11-11--8-8---9--9-|
D|--7---9--9--6-6---7--7-|
A|-----------------------|
E|-----------------------|
  "Ángel... somos arena y mar..."

 *Sigues aqui con el Coro, solo q lo extiendes y le añades una parte
  del intro.  

           FIN!


Ahí nos vemos!





Comments


Popular Mana tabs & chords
Manda Una Seal Bass Tabs
No Ha Parado De Llover Bass Tabs
Robot Chords
Cuando Los Angeles Lloran 1 Tabs
En El Muelle De San Blas (Intro Ver 2) Tabs
Gitana Tabs
Me Vale Tabs
Oye Mi Amor Tabs
Te Solte La Rienda Tabs
Vivir Sin Aire 1 Tabs


Song lyrics



↑ Back to top | Tablatures and chords are parodies/interpretations of the original songs. You may use it for private study, scholarship, research or language learning purposes only
© 2014 AZChords.com Contact us | Privacy policy | DMCA | Add/correct tabs | Request tabs | Top 50 tabs