» » »

Mana, Ana Chords (ver.1)

Artists:  A B C D E F G H I J K L M N O P Q R S T U V W X Y Z # 

Ana Chords (ver.1)

Mana Tabs
 Rating:
4.4/5 (7 votes)
Ana lessons Tabs too difficult? Try these video lessons and learn fast
1
                Intro 2X:
e--4-4-4-4-------------2-2-2-2-2-2-|
B--5-5-4-5---2-2-0-2---2-2-2-4-4-4-|
G--6-6-6-6---2-2-2-2---2-2-2-4-4-4-|
D--6-6-6-6---2-2-2-2---4-4-2-4-4-4-|
A--4-4-4-4-------------4-4-4-2-2-2-|
E--4-4-4-4-------------2-2-2-------|

C#m		A
Ana tiene quince
F#m			B
ninia se le vino un problemon
C#m		A
algo esta creciendo
F#m			B
en su vientre hay algo en expansion
C#m		A
el culpable ya huyo
F#m		B
pobre ana sola se quedo
C#m		A
no le duele tanto eso
F#m		B
sino que lo niegue el maricon

(Intro)
C#m		A
Ana lo no cuenta
F#m			B
Ana llueve llanto en su colchon
C#m		A
y hay que ser discreta
F#m			B
ropa suelta esconde la ocasion.
C#m		A
Se siente morir
F#m			B
pobre Ana no quieres vivir
C#m		A
si en casa la descubren
F#m			B
la azotan, la corren, la matan

(intro)
Chorus:
Abm		A
Ana se ira algun dia
E		B
se ira para siempre
Abm		A
Ana se ira de este mundo
E		B
se ira al jamas
Abm		A
Ana se ira algun dia
E		B
se ira para siempre
Abm		A
Ana se ira de este mundo
E		B
se ira al jamas

(intro)

C#m			A
Por cierto en casa de Ana
F#m			B
ya nunca hubo comprension
C#m			A
lo que mas lamenta Ana
F#m			B
es que nunca hubo educacion
C#m		A
y en desesperacion
F#m			B
la vida de Ana se esfumaba
C#m			A
y todo porque aquel dia
F#m
el egoismo y la conciencia
B
se quedaron en un cajon

(Intro)

Chorus:
Abm		A
Ana se ira algun dia
E		B
se ira para siempre
Abm		A
Ana se ira de este mundo
E		B
se ira al jamas
Abm		A
Ana se ira algun dia
E		B
se ira para siempre
Abm		A
Ana se ira de este mundo
E		B
se ira al jamas

Solo:
e---------------------|
B------------7-8-10-7-|
G--6-6---6-9----------|
D------9--------------|
A---------------------|
E---------------------|

e----9---11--12-12-12-12-12--------|
B--10--10--10----------------------|
G----------------------------------|

e----9---11--12-12-12-12-12--------|
B--10--10--10----------------------|
G----------------------------------|
            
Submit corrections

comments powered by Disqus
↑ Back to top | Mana Chords for Ana. Lyrics for acoustic guitar and electric guitar. 1 Tablatures and chords are parodies/interpretations of the original songs. You may use it for private study, scholarship, research or language learning purposes only