» » »

Amame Hasta Que Me Muera Tabs (ver.1)

Artists:  A B C D E F G H I J K L M N O P Q R S T U V W X Y Z # 

Amame Hasta Que Me Muera Tabs (ver.1)

Mana
Rating:
0/5 (0 votes)

Hard to play? Try these video lessons and learn fast.
                Intro F# ->G  G ->F#

Solo1

e|-7-9-10-9-7--------------------------------------------------|
B|-----------8--------------------6-7-8--7---------------------|
G|------------9--7-9-7--6~--6-7-9-------9--7-9--6-6h7-------6~-|
D|----------------------------------------------------9-8-9----|
A|-------------------------------------------------------------|
E|-------------------------------------------------------------|

 Bm                      A     G                 F#
Ven y empapame de amor, ven y apagame este ardor,
yo quiero ahogarme en ti, en tus muslos naufragar,
amame hasta que mi piel se vuelva amaneceres,
y no sepamos nunca mas, donde esta el cielo o el suelo.

 G    F#     Bm      G    F#         Bm
Dame amor 10 veces, dame amor, hazme el amor
 G    F#     Bm        G                       F#
dame amor 100 veces, dame amor hasta que yo me muera.

Solo2

e|-------5-5-5-------------------------------9-10-9---------|
B|---5-7-------8-7-5-8-7-5---7-5h7-5--7-8-10--------10-6h7~-|
G|-7-----------------------7--------------------------------|
D|----------------------------------------------------------|
A|----------------------------------------------------------|
E|----------------------------------------------------------|

Quiero derretirme en ti, penetrar hasta tu corazon,
yo quiero sembrarme en ti, sembrarme pa' siempre
amemonos hasta embriegar, embriagar el alma,
y no sepamos nunca mas, donde esta el cielo o el suelo.


Arpegeo: F# , G ,  G | F# | Em | F# | Bm | A | G |F#

Niña de mi amor(1), pierdete en mis mares(2),
niña de mi amor(3), nada en mis rincones(4),
no te puedes ir(5), niña de mis sueños(6),
no me dejes mas(3), quiero ser tu dueño.

     Riff 1                 Riff 2              Riff 3           Riff 4
e--------------|-------------------|7-7-7------------|------------------|---------|
B-10-10-8-7-8~-|-8-7------7--------|------10-10-8-8~-|-8-7-----7--------|------7--|
G--------------|-----9-7----9-7-7~-|-----------------|-----9-7---9-7-7~-|-------7-|
D--------------|-------------------|-----------------|------------------|-7-7-7---|
A--------------|-------------------|-----------------|------------------|---------|
E--------------|-------------------|-----------------|------------------|---------|

Riff 5           Riff 6
--|-10-9-7---------------|
--|--------10-8-7-----7~-|
9~|---------------9-7----|
--|----------------------|
--|----------------------|
--|----------------------|


Final: G | F# | Em | F#
            
Hard to play? Try these video lessons and learn fast. | Correct




comments powered by Disqus
↑ Back to top | Tablatures and chords are parodies/interpretations of the original songs. You may use it for private study, scholarship, research or language learning purposes only