» » »

Mamonas Assassinas, Mundo Animal Tabs (ver.1)

Artists:  A B C D E F G H I J K L M N O P Q R S T U V W X Y Z # 

Mundo Animal Tabs (ver.1)

Mamonas Assassinas Tabs
 Rating:
4.3/5 (6 votes)
Mundo Animal lessons Tabs too difficult? Try these video lessons and learn fast
1
                Intro:

E|-----------------------------------------------------------------------|
B|-----------------------------------------------------------------------|
G|---x---x--9---x--x--9----x--x--7---x--x--7-------5---------5-----------|(3 vezes)
D|---x---x--9---x--x--9----x--x--7---x--x--7---5h7-5--7/-5h7-5---7/-5-7/-|
A|---x---x--7---x--x--7----x--x--5---x--x--5----------7----------7-------|
E|-----------------------------------------------------------------------|

E|--------------------------------------------------------------------|
B|--------------------------------------------------------------------|
G|---x--x--9---x--x--9----x--x--7---x--x--7------5--------------------|
D|---x--x--9---x--x--9----x--x--7---x--x--7--5-7---7-5-7--------------|
A|---x--x--7---x--x--7----x--x--5---x--x--5--------------7------------|
E|--------------------------------------------------------------------|

Verso:

e|-0-0--2-3--0-0-0-0--|
B|-0-0--3-3--2-0-2-0--|
G|-1-2--2-2--2-2-2-2--|
D|-2-2--0-0--2-2-2-2--|
A|-2-2-------0-0-0-0--|
E|-0-0----------------|

Refrão:

e|-------------------------------------------------------------|
B|-------------------------------------------------------------|
G|-9-9--9-9--8~----7-7--7-7--6~--------------------------------|(2 vezes)
D|-9-9--9-9--9~----7-7--7-7--7~----7-7--7-7-7--6-7-7--7-7-7-6~-|
A|-7-7--7-7--7~----5-5--5-5--5~----7-7--7-7-7--7-7-7--7-7-7-7~-|
E|---------------------------------5-5--5-5-5--5-5-5--5-5-5-5~-|

(~): deixe soar...

Pós refrão:

e|---------------------|
B|---------------------|
G|---------------------|(2 vezes)
D|-2-2------2-2--------|
A|-2-2------2-2--------|
E|-0-0--(8)-0-0--(5)---|

( ): harmônico


Solinho: (E, B)

e|---------------------------------------------------------------|
B|---9---10--9------9---10--9------9---10--9---12--10-9-10--9----|
G|-9---9-------9--9---9-------9--9---9-------9----------------9--| (2 vezes)
D|---------------------------------------------------------------|
A|---------------------------------------------------------------|
E|---------------------------------------------------------------|


            E
  Comer tatu é bom
      D                    A
  Que pena que dá dor nas "costcha"
                      E
  Porque o bicho é baixinho
          D                         A
  E é por isso que eu prefiro as cabritas
                   E
  As cabritas têm seios
        D                    A
  E alimentam os seus descendentes

               E
  No mundo animal
    D               A
  "Exeste" muita putaria
                     E
  Por exemplo, os cachorro
                       D                    A
  Que comem a própria mãe, sua irmã e suas tias
                E
  Eles ficam grudados
                 D                     A
  De quatro se amando em plena luz do dia

Refrão:
         E          D             A
  Os animal tem uns bicho interessante
           E           D            A
  Imaginem só como é o sexo dos elefante
         E                D                  A
  E os camelos que têm as bolas em cima das costa
          E                    D                          A
  E as vaquinha que por onde passam deixam um rastro de bosta

  Pós refrão.

  Solinho.

                     E
  As pombas quando "avoam"
         D           A
  Por incrível que pareça
               E
  Ficam sobrevoando
                  D                 A
  Com seu cu "amirando" em nossas cabeças,
              E
  Daí vem a rajada
      D            A
  De sua "bazuca an*l"
                   E
  Já tem pomba com mira-a-laser
    D                  A
  O tiro sai sempre fatal

              E
  Totalmente beautiful
        D          A
  As baleias do oceano
               E
  Nadando com graça
             D                 A
  Fugindo da caça dos homens humanos
             E
  O homem é corno e cruel
            D                        A
  Mata a baleia que não chifra e é fiel  ...refrão

         E          D             A
  Os animal tem uns bicho interessante
               E              D              A
  Imaginem o tamanho que é o pinto de um elefante
         E                D                  A
  E os camelos que têm as bolas em cima das costas
          E                    D                          E D  A
  E as vaquinhas que por onde passam deixam um rastro de boooooos...ta
            
Submit corrections

comments powered by Disqus
↑ Back to top | Mamonas Assassinas Tabs for Mundo Animal. Lyrics for acoustic guitar and electric guitar. 1 Tablatures and chords are parodies/interpretations of the original songs. You may use it for private study, scholarship, research or language learning purposes only