>
 >
Debil Metal

Debil Metal Guitar Tabs

Mamonas Assassinas - Debil Metal chords, tabs, tablatures, lyrics

Guitar lessons | Add/correct | Request | Top 50 tabs Artists:  A B C D E F G H I J K L M N O P Q R S T U V W X Y Z 0-9

Debil Metal Guitar Tabs – Mamonas Assassinas

CD, Sheet music, Poster

Do you like Debil Metal? Share with your friends now
Tabs


MAIN RIFF

E|-------------------------------------------------------------------|
B|-------------------------------------------------------------------|
G|----------4-3------------------------------------4-3---------------| (x2)
D|----5-4----------5-4-----------------------5-4---------5-4---------|
A|--------------------------4~*--------------------------------------|
E|--2-----2------2-----0x0x------0x0x0x-2--------2-----2-----0x0x-5~*|


    E                                   F#
E|-------------------------------------------------------------------|
B|-------------------------------------------------------------------|
G|----------4-3------------------------------------4-3---------------|
D|----5-4----------5-4-----------------------5-4---------5-4---------|
A|--------------------------4~*--------------------------------------|
E|--2-----2------2-----0x0x------0x0x0x-2--------2-----2-----0x0x-5~*|


    F#                                  G
E|-------------------------------------------------------------------|
B|-------------------------------------------------------------------|
G|----------4-3------------------------------------4-3---------------|
D|----5-4----------5-4-----------------------5-4---------5-4---------|
A|--------------------------4~*--------------------------------------|
E|--2-----2------2-----0x0x------0x0x0x-2--------2-----2-----0x0x-5~*|

    F#                                  E
E|-------------------------------------------------------------------|
B|-------------------------------------------------------------------|
G|----------4-3------------------------------------4-3---------------|
D|----5-4----------5-4-----------------------5-4---------5-4---------|
A|--------------------------4~*--------------------------------------|
E|--2-----2------2-----0x0x------0x0x0x-2--------2-----2-----0x0x-5~*|


F#  G  F#  E

  E             F#
Walking in the dark
             E         F#
now there's just some cookies
  F#              G
which is not for you
  F#         G
I know it's not and
E                F#
I just can't explain
   E            F#
it melts in my mouth.
 E       F#
Dying to me now is popcorn.
Bm                 A
 Can't you understand?
		         E
Can't you understand, boy?
                   D
So, shake your head
      A
So, shake your head, sucker!

    F#                                  G
E|-------------------------------------------------------------------|
B|-------------------------------------------------------------------|
G|----------4-3------------------------------------4-3---------------|
D|----5-4----------5-4-----------------------5-4---------5-4---------|
A|--------------------------4~*--------------------------------------|
E|--2-----2------2-----0x0x------0x0x0x-2--------2-----2-----0x0x-5~*|

    F#                                  E
E|-------------------------------------------------------------------|
B|-------------------------------------------------------------------|
G|----------4-3------------------------------------4-3---------------|
D|----5-4----------5-4-----------------------5-4---------5-4---------|
A|--------------------------4~*--------------------------------------|
E|--2-----2------2-----0x0x------0x0x0x-2--------2-----2-----0x0x-5~*|

    F#                                  G
E|-------------------------------------------------------------------|
B|-------------------------------------------------------------------|
G|----------4-3------------------------------------4-3---------------|
D|----5-4----------5-4-----------------------5-4---------5-4---------|
A|--------------------------4~*--------------------------------------|
E|--2-----2------2-----0x0x------0x0x0x-2--------2-----2-----0x0x-5~*|

    F#                                  E
E|----------------------------------------------------------|
B|----------------------------------------------------------|
G|----------4-3------------------------------------4-3------|
D|----5-4----------5-4-----------------------5-4---------5--|
A|--------------------------4~*-----------------------------|
E|--2-----2------2-----0x0x------0x0x0x-2--------2-----2----|

SOLO

                                                            F#
E|------------------------------------------------------------|
B|------------------------------------------------------------|
G|-----------3-4-4-4--3-4-6-6-6--4-6-7-7-7--6-7-9-9-9--7-9-9b-|
D|------------------------------------------------------------|
A|------------------------------------------------------------|
E|------------------------------------------------------------|

                                       G
-------------------------------------|---------------------------------------|
-------------------------------------|-----------------------------------7-8-|
--L----9br--7-6-7-9-6-7-6------------|--6--7--6-----6------------------------|
--------------------------9-8--8--9--|-----------9-----9--8--5--4------L-----|
-------------------------------------|---------------------------------------|
-------------------------------------|---------------------------------------|

F#
--6------------------------------------------------------|
----8-7-8-7---7------------------------------------------|
------------9---9-7-9-7-6-7-6-4h-6p-4-3-4-3---3----------|
--------------------------------------------5---5-4-5----|
---------------------------------------------------------|
---------------------------------------------------------|

 E
----------------9-14-------9-14p-9-14p-9-----------------------------------------|
-------------11---------11---------------12-------------------------12p-11-12s-1-|
----------11---------11---------------------11-------------------11--------------|
-------11--------------------------------------12-------------12-----------------|
--9-13--------------------------------------------14-------14--------------------|
-----------------------------------------------------14-14-----------------------|

   Bm                      A             E                 D
-------------------------------------|-------------------------------------|
-------------------------------------|----7b-7b-7br-------<>7--------------|
----9--8-----9--8-----9---L--9----L--|----------------9-------<>7----------|
----------9--------9-----------------|----------------------------<>7----L-|
-------------------------------------|-------------------------------------|
-------------------------------------|-------------------------------------|

   E                D                  A
-------------------------------------|---------------------------------------|
-------------------------------------|--------------5-7-7br----10--L---------|
----9-8---9-8------------------2-4-6-|--------4-6-8----------9--9--L---------|
--L-----9-----9-7-L--7---2-4-6-------|--4-6-8--------------------------------|
-------------------------------------|---------------------------------------|
-------------------------------------|---------------------------------------|


--------------------------------------------------------------------------------|
--15-14-12-14-12-------12-------------------------------------------------------|
-----------------15-12----15-12-15-12-11-12-11----11----------------------------|
-----------------------------------------------14----14-12-14-12-11-12-11----11-|
--------------------------------------------------------------------------14----|
--------------------------------------------------------------------------------|


----------------------|
----------------------|
----------------------|
----------------------|
--10-9-10-9-7-9----L--|
----------------------|


------------------------------------|
------------------------------------|
----------------4-3---------4-3-----|
----------5-4----------5-4------2~--|
------------------------------------|
-0x0x0x-2-----2-----2------2--------|


    Ohh!
    F#                                  G
E|------------------------------------------------------------------------|
B|------------------------------------------------------------------------|
G|---------------4-3------------------------------------4-3---------------|
D|---------5-4----------5-4-----------------------5-4---------5-4---------|
A|-------------------------------4~*--------------------------------------|
E|--0x0x-2-----2------2-----0x0x------0x0x0x-2--------2-----2-----0x0x-5~*|

    F#                                  E
E|-------------------------------------------------------------------|
B|-------------------------------------------------------------------|
G|----------4-3------------------------------------4-3---------------|
D|----5-4----------5-4-----------------------5-4---------5-4---------|
A|--------------------------4~*--------------------------------------|
E|--2-----2------2-----0x0x------0x0x0x-2--------2-----2-----0x0x-5~*|

    F#                                  G
E|-------------------------------------------------------------------|
B|-------------------------------------------------------------------|
G|----------4-3------------------------------------4-3---------------|
D|----5-4----------5-4-----------------------5-4---------5-4---------|
A|--------------------------4~*--------------------------------------|
E|--2-----2------2-----0x0x------0x0x0x-2--------2-----2-----0x0x-5~*|

    F#                                  E
E|----------------------------------------------------------|
B|----------------------------------------------------------|
G|----------4-3------------------------------------4-3------|
D|----5-4----------5-4-----------------------5-4---------5--|
A|--------------------------4~*-----------------------------|
E|--2-----2------2-----0x0x------0x0x0x-2--------2-----2----|


  E             F#
Walking in the dark
             E         F#
now there's just some cookies
  F#              G
which is not for you
  F#         G
I know it's not and
E                F#
I just can't explain
   E            F#
it melts in my mouth.
 E       F#
Dying to me now is popcorn.
Bm                 A
 Can't you understand?
		         E
Can't you understand, boy?
                   D
So, shake your head
      A                 Bm     A       D   E
So, shake your head, suckeeeer, oh no!
    F#
So shake your head sucker!


  F#                                  G
E|-------------------------------------------------------------------|
B|-------------------------------------------------------------------|
G|----------4-3------------------------------------4-3---------------|
D|----5-4----------5-4-----------------------5-4---------5-4---------|
A|--------------------------4~*--------------------------------------|
E|--2-----2------2-----0x0x------0x0x0x-2--------2-----2-----0x0x-5~*|

    F#                                  E
    No more ideas!                      No more ideas!
E|-----------------------------------------------------------------------------|
B|-----------------------------------------------------------------------------|
G|----------4-3------------------------------------4-3-------------------------|
D|----5-4----------5-4-----------------------5-4---------5-4-------------------|
A|--------------------------4~*------------------------------------------------|
E|--2-----2------2-----0x0x------0x0x0x-2--------2-----2-----0x0x-5~*--0x0x0x-2|

     F#
Itīs over!


END





Comments


Popular Mamonas Assassinas tabs & chords
Pelados Em Santos Bass Tabs
Pelados Em Santos Chords
Sabado De Sol Chords
Bois Don't Cry Tabs
Lá Vem O AlemãO Tabs
Mundo Animal Tabs
Robocop Gay Tabs
Chopis Centis Ukulele
Pelados Em Santos Ukulele
Sabado De Sol Ukulele


Song lyrics



↑ Back to top | Tablatures and chords are parodies/interpretations of the original songs. You may use it for private study, scholarship, research or language learning purposes only
© 2014 AZChords.com Contact us | Privacy policy | DMCA | Add/correct tabs | Request tabs | Top 50 tabs