» » »

1406 Tabs (ver.1)

Artists:  A B C D E F G H I J K L M N O P Q R S T U V W X Y Z # 

1406 Tabs (ver.1)

Mamonas Assassinas
Rating:
0/5 (0 votes)

Hard to play? Try these video lessons and learn fast.
                Intro:
e|-15~--15^16-----------------------------|
B|-15~--15^16-----------------------------|
G|----------------------------------------|
D|-------------------5--------------------|
A|-------------------5--------------------|
E|-------------------3--0-----------------|

e|----------------------------------------|
B|----------------------------------------|
G|----------------------------------7-9---|
D|---7-6----------------7-6-------5-------|
A|-------5-4---5------------5-4-4---------|
E|-0---------0---5^6--0-------------------|

e|----------------------------------------|
B|----------------------------------------|
G|----------------------------------------|
D|---7-6----------------7-6--------4---5--|
A|-------5-4---5------------5-4----4---5--|
E|-0---------0---5^6--0----------0-2-0-3--|

e|----------------------------------------|
B|----------------------------------------|
G|----------------------------------7-9---|
D|---7-6----------------7-6-------5-------|
A|-------5-4---5------------5-4-4---------|
E|-0---------0---5^6--0-------------------|

e|----------------------------------------|
B|----------------------------------------|
G|----------------------------------------|
D|---7-6----------------7-6---------------|
A|-------5-4---5------------5-4-----------|
E|-0---------0---5^6--0-------------------|

Verse:
e|------------------------15~-------------|
B|------------------------15~-------------|
G|----------------------------------------|
D|----------------------------------------|
A|-------4-5-4-5-7--4-4-------------------|
E|-0-3-4----------------------------------|

e|------------------------15^16-----------|
B|------------------------15^16-----------|
G|----------------------------------------|
D|----------------------------------------|
A|-------4-5-4-5-7--4-4-------------------|
E|-0-3-4----------------------------------|

Chorus:
e|----------------------------------------|
B|----------------------------------------|
G|----------------------------------------|
D|-5-5--2-3---5-5--2-3---5-5--2-3----2----|
A|-5-5--2-3---5-5--2-3---5-5--2-3----2----|
E|-3-3--0-1---3-3--0-1---3-3--0-1----0----|

e|----------------------------------------|
B|----------------------------------------|
G|----------------------------------------|
D|-5-5--2-3---5-5--2-3---5-5--2-3----2----|
A|-5-5--2-3---5-5--2-3---5-5--2-3----2----|
E|-3-3--0-1---3-3--0-1---3-3--0-1----0----|


Intro

Verse

Chorus

Intro

Verse

Chorus (2x)

Outro:
e|--------------------15~---------------------15^16----|
B|--------------------15~---------------------15^16----|
G|-----------------------------------------------------|
D|--2-2-2-2--2-2-2-2--------2-2-2-2--2-2-2-2-----------|
A|--2-2-2-2--2-2-2-2--------2-2-2-2--2-2-2-2-----------|
E|--0-0-0-0--0-0-0-0--------0-0-0-0--0-0-0-0-----------|
p.m._______  _______        _______  _______

e|--------------------15^16---------------------15^16----|
B|--------------------15^16---------------------15^16----|
G|-------------------------------------------------------|
D|--2-2-2-2--2-2-2-2----------2-2-2-2--2-2-2-2-----------|
A|--2-2-2-2--2-2-2-2----------2-2-2-2--2-2-2-2-----------|
E|--0-0-0-0--0-0-0-0----------0-0-0-0--0-0-0-0-----------|
            
Hard to play? Try these video lessons and learn fast. | Correct




comments powered by Disqus
↑ Back to top | Tablatures and chords are parodies/interpretations of the original songs. You may use it for private study, scholarship, research or language learning purposes only