» » »

Mammal, Smash The Pinata Tabs (ver.1)

Artists:  A B C D E F G H I J K L M N O P Q R S T U V W X Y Z # 

Smash The Pinata Tabs (ver.1)

Mammal Tabs
 Rating:
2.9/5 (9 votes)
Smash The Pinata lessons Tabs too difficult? Try these video lessons and learn fast
                Sounds right :D Check it peoples ;)

-----------------------------------------------------------------------------
-------------------------------------------------------------------------------

Tuning: Drop D - D a d g b e


Intro:
    Lott's of Wah and distortion
e|---------------------------------------------------------------------------|
B|---------------------------------------------------------------------------|
G|------7-(sustain)-----/////----19-(many_times___End_on_>)-14---------------|
D|---------------------------------------------------------------------------|
A|---------------------------------------------------------------------------|
D|---------------------------------------------------------------------------|
verse +/ chorus
e|-----------------------------------------------------------------------------|
B|--------6---6---6---6-----------6---6---6---6--------------------------------|
G|--------10--10--10--10----------10--10--10--10-------------------------------|
D|---00--------------------0--00-----------------------------------------------|
A|---00--------------------0--00-----------------------------------------------|
D|---00--------------------0--00-----------------------------------------------|
  PM----                 PM----------------------------------------------------|

e|--------------------------------------------6---------------------------------|
B|--------6---6---6---6-----------6---6---8-------------------------------------|
G|--------10--10--10--10----------10--10----------------------------------------|
D|---00--------------------0--00------------------------------------------------|
A|---00--------------------0--00------------------------------------------------|
D|---00--------------------0--00------------------------------------------------|
  PM----                 PM-----------------------------------------------------|
e|------------------------------------------------------------------------------|
B|--------6---6---6---6-----------6---6---6---6---------------------------------|
G|--------10--10--10--10----------10--10--10--10--------------------------------|
D|---00--------------------0--00------------------------------------------------|
A|---00--------------------0--00------------------------------------------------|
D|---00--------------------0--00------------------------------------------------|
  PM----                 PM-----------------------------------------------------|

e|--------------------------------------------6(ring_out)----------------------|
B|--------6---6---6---6-----------6---6---8------------------------------------|
G|--------10--10--10--10----------10--10---------------------------------------|
D|---00--------------------0--00-----------------------------------------------|
A|---00--------------------0--00-----------------------------------------------|
D|---00--------------------0--00-----------------------------------------------|
  PM----                 PM----------------------------------------------------|

e|---------6---------------------------------6---------------------------------|
B|-------------8---10---------------10---8-------------------------------------|
G|-----------------------------------------------------------------------------|
D|-----0-0--------------------0-0----------------------------------------------|
A|-----------------------------------------------------------------------------|
D|-----------------------------------------------------------------------------|
  PM  ---                  PM -------------------------------------------------|

e|---------6---------------------------------6---------------------------------|
B|-------------8---10---------------10---8-------------------------------------|
G|-----------------------------------------------------------------------------|
D|-----0-0--------------------0-0----------------------------------------------|
A|-----------------------------------------------------------------------------|
D|-----------------------------------------------------------------------------|
  PM  ---                  PM -------------------------------------------------|


the rest Of the song is just a variation of that until the bridge/ solo kicks in. I will 
this When I have worked those out (:
Comment and rate x

************************************
Sam Patterson Is A Babe
************************************

| /   slide up
| \   slide down
| h   hammer-on
| p   pull-off
| ~   vibrato
| +   harmonic
| x   Mute note
| b   Bend
| pb  Pre-bend
| br  Bend release
| pbr Pre-bend release
| brb Bend release bend

************************************
            
Submit corrections

comments powered by Disqus
↑ Back to top | Mammal Tabs for Smash The Pinata. Lyrics for acoustic guitar and electric guitar. Tablatures and chords are parodies/interpretations of the original songs. You may use it for private study, scholarship, research or language learning purposes only