>
 >
Smash The Pinata

Smash The Pinata Bass Tabs

Mammal - Smash The Pinata chords, tabs, tablatures, lyrics

Guitar lessons | Add/correct | Request | Top 50 tabs Artists:  A B C D E F G H I J K L M N O P Q R S T U V W X Y Z 0-9

Smash The Pinata Bass Tabs – Mammal

CD, Sheet music, Poster

Do you like Smash The Pinata? Share with your friends now
Bass TabsTabsTabs v2
-------------------------------------------------------------------------------
-------------------------------------------------------------------------------


Tuning: Drop D (DADG)

To get some semblance of Nick's tone, up the treple, cut the mids a little and play HARD 
the slides.

Verse
G|------------------------|
D|----3p2-----------------|
A|-------3/5--5---3/5-----|
D|0-0--------0-0-0--------|

"you got one?" bridge
G|----------------------|
D|----------------------|
A|--5---------5----3/5--|
D|0---00x--000-00-0-----|

Verse
G|------------------------|
D|----3p2-----------------|
A|-------3/5--5---3/5-----|
D|0-0--------0-0-0--------|

"My strength, humm" bridge
G|-----------------------|
D|-----------------------|
A|-----------------------|
D|0---/12--0-------------|

Variations on the verse played afer that:
G|-----------------|--------------------|
D|----3p2----------|----3p2-------------|
A|-------3/5--5~---|-------3/5--5-------|
D|0-0--------0-----|0-0--------0-0/12---|

This bit is damn tricky and I'm still not 100% on it, any offers on a more likely 
G|-------------------|--------------------|--------------------|
D|-------------------|--------------------|-------------------3|
A|----555-3/5\1-1h33-|----555-3/5\1-1h33-0|----555-3/5\1-1h33--|
D|0-0----0-----0----3|0-0----0-----0------|0-0----0-----0------|
           ^ ^these couple of slides are played FAST in each variation

"WE WANT THE GUNS..." bridge
G|--------------------------------------------------------------------------------|
D|--------------------------------------------------------------------------------|
A|---55-55----77-77----88-88-----1010-1010----------------------------------------|
D|000------000------000------000-----------000-66-66-000-88-88-000-1010-1010-10/12|

Outro (follow the kick drum all the way)
G|----------------------------|
D|----------------------------|
A|----------------------------|
D|00-000-000-00-00-000-00-0/12|

hope they start doing some worldly tours soon :)

| /  slide up
| \  slide down
| h  hammer-on
| p  pull-off
| ~  vibrato
| +  harmonic
| x  Mute note
===============================================================================





Comments


Popular Mammal tabs & chords
Burn Out Bass Tabs
Clear Enough Bass Tabs
Mr Devil Bass Tabs
Aural Underground Intro Tabs
Smash The Pinata Tabs
Smash The Pinata 1 Tabs
The Majority Tabs
The Majority 1 Tabs
The Majority 2 Tabs
The Majority Intro Tabs


Song lyrics



↑ Back to top | Tablatures and chords are parodies/interpretations of the original songs. You may use it for private study, scholarship, research or language learning purposes only
© 2014 AZChords.com Contact us | Privacy policy | DMCA | Add/correct tabs | Request tabs | Top 50 tabs