» » »

Mammal, Mr Devil Bass tabs (ver.1)

Artists:  A B C D E F G H I J K L M N O P Q R S T U V W X Y Z # 

Mr Devil Bass tabs (ver.1)

Mammal Tabs
Rating:
5/5 (2 votes)
Mr Devil lessons Tabs too difficult? Try these video lessons and learn fast
                -------------------------------------------------------------------------------
-------------------------------------------------------------------------------


Tuning: DADG

To get a good Nick Adams feel add some treble, low mids, mid-range bass. Play hard with 
and aggressive slap!


Main Riff Part 1:
G|-------------------------------------|
D|-------------------------------------|
A|----------3-----------------3-5------|
E|---0-35-3---5-3--0-35-0-5-0----------|

Riff Part 2:
G|-------------------------------------|
D|-------------------------------------|
A|---------3------------------3--------|
E|--0-35-3---5-3--0-3-5-0-3-0---5------|

Riff Part 2(Variation):
G|-------------------------------------|
D|-------------------------------------|
A|---------3------------------3--------|
E|--0-35-3---5-3--0-5-3-0-3-0---5------|

Chorus:
G|---------------------------------------------------------------------------|
D|---------------------------------------------------------------------------|
A|--5-5-5-5-5-5-5-555--3-3-3-3-3-3-3-333--2-2-2-2-2-2-2-222--333-3-333-3-----|
E|---------------------------------------------------------------------------|

Bridge:
G|-------------------------------------------|
D|-------------------------------------------|
A|-------------------------------------------|
E|--0--0-0-0---0--0-0-0--0--0-0-0--0-0-0-/12-|

Funky Bit: (Havnt actually figures it out, so just jam, kinda like this)
G|-------------------------------------|
D|-------------------------------------|
A|-----------3--5-------(ADD FILL)-----|
E|--00-3-5-3-----35-00-----------------|

Other Bit:
G|-------------------------------------|
D|-------------------------------------|
A|------3~-2~-33-------3~-2~-33-5------|
E|--0~-----------0--0~-----------------|

Outro:
G|-------------------------------------|
D|-------------------------------------|
A|-------------------------------------|
E|--0~--/12~---------------------------|


FUNKY!!!
            
Submit corrections

comments powered by Disqus
↑ Back to top | Mammal Bass for Mr Devil. Lyrics for acoustic guitar and electric guitar. Tablatures and chords are parodies/interpretations of the original songs. You may use it for private study, scholarship, research or language learning purposes only