» » »

Mammal, Clear Enough Bass tabs (ver.1)

Artists:  A B C D E F G H I J K L M N O P Q R S T U V W X Y Z # 

Clear Enough Bass tabs (ver.1)

Mammal Tabs
 Rating:
4/5 (4 votes)
Clear Enough lessons Tabs too difficult? Try these video lessons and learn fast
1
                -------------------------------------------------------------------------------
                             Clear Enough? - Mammal
-------------------------------------------------------------------------------


Tuning: DADG

To get a good Nick Adams feel add some treble, low mids, mid-range bass. Play hard
with fingers and aggressive slap!

Intro/Verse:
G|--------------------------------------|
D|--------------------------------------|
A|--------------------------------------|
E|--222-222-222-/5-00-222-222-222-/4-00-|

Verse Variation:
G|-------------------------------------|
D|-------------------------------------|
A|-------------------------------------|
E|--222----222----2/4-00---------------|

Chorus:
G|--------------------------------------|
D|--------------------------------------|
A|--------------------------------------|
E|--2222-2222-2222-555-000--------------|

Post Chorus: (Have I painted a portrait or picture that clear enough?)
G|------------------|
D|------------------|
A|------------------|
E|--222-22-2-22-----|

Pre Chorus:
G|-------------------|
D|-------------------|
A|-------------------|
E|--2~-2/5-0~-5\-----|

Solo: (Roughly follow this [very roughly])
G|------------------------------|
D|--------2---------------------|
A|------------------------------|
E|--2-222---55------------------|
    S SSS P SS

Solo 2:
G|------------------|
D|--------0/2-4-2---|
A|------------------|
E|--2-4-2-----------|

Bridge:
G|---------------------------------------------------------------------------|
D|---------------------------------------------------------------------------|
A|---------------------------------------------------------------------------|
E|--2~-222-222-22-/5-0~-000-00-\5-2~-222-222-222-/5-0~-00-/1212121212121212--|

Outro:
G|--------------------------------------------|
D|--------------------------------------------|
A|--------------------------------------------|
E|--222222222--22222222--22222222--00000222---|
            
Submit corrections

comments powered by Disqus
↑ Back to top | Mammal Bass for Clear Enough. Lyrics for acoustic guitar and electric guitar. 1 Tablatures and chords are parodies/interpretations of the original songs. You may use it for private study, scholarship, research or language learning purposes only