» » »

Burn Out Bass tabs (ver.1)

Artists:  A B C D E F G H I J K L M N O P Q R S T U V W X Y Z # 

Burn Out Bass tabs (ver.1)

Mammal
Rating:
0/5 (0 votes)

Hard to play? Try these video lessons and learn fast.
                -------------------------------------------------------------------------------
-------------------------------------------------------------------------------

Tuning: DADG

To get a good Nick Adams feel add some treble, low mids, mid-range bass. Play hard with 
and aggressive slap!

0.13
G|-------------------------|
D|-------------------------|
A|-------------------------|
E|---00----00----00---00---|

0.38
G|------------------------------------|
D|------------------------------------|
A|------------------------------------|
E|--00--00--00--00---00--00---00---00-|

Riff 2:
G|------------------------------------------|
D|------------------------------------------|
A|-----------5------------3-5---------------|
E|--0-00-3/5---0--3/5-3/5-------------------|
            
Hard to play? Try these video lessons and learn fast. | Correct




comments powered by Disqus
↑ Back to top | Tablatures and chords are parodies/interpretations of the original songs. You may use it for private study, scholarship, research or language learning purposes only