» » »

California Dreamin' Tabs (ver.2)

Artists:  A B C D E F G H I J K L M N O P Q R S T U V W X Y Z # 

California Dreamin' Tabs (ver.2)

Mamas And The Papas
Rating:
0/5 (0 votes)

Hard to play? Try these video lessons and learn fast.
                (Intro)
Gtr1 12-string
e|---------------|------4-5-4----|---------------|-4-|
B|---------------|-------------7-|-5---7-5-4-----|-4-|
G|---------------|---------------|-----------6-4-|-6-|
D|---------------|---------------|---------------|-4-|
A|---------------|---------------|---------------|-6-|
E|---------------|---------------|---------------|-4-|
Gtr2  6-string
e|---------------|---------------|---------------|---|
B|-----4---7-5-4-|-----4---7-5-4-|-----4---7-5-4-|-6-|
G|---6-----------|---6-----------|---6-----------|---|
D|-6-----6-------|-6-----6-------|-6-----6-------|---|
A|---------------|---------------|---------------|---|
E|---------------|---------------|---------------|---|
            
Hard to play? Try these video lessons and learn fast. | Correct




comments powered by Disqus
↑ Back to top | Tablatures and chords are parodies/interpretations of the original songs. You may use it for private study, scholarship, research or language learning purposes only