» » »

California Dreaming Chords (ver.2)

Artists:  A B C D E F G H I J K L M N O P Q R S T U V W X Y Z # 

California Dreaming Chords (ver.2)

Mamas And The Papas
Rating:
3/5 (24 votes)

Hard to play? Try these video lessons and learn fast.
                I´ve seen all the other versions and either they are wrong or too complicated or
both.this is how you have to play it with one guitar

capo 4th fret
standart tuning
Esus4: E--0-
       B--0-
       G--2-
       D--2-
       A--2-
       E--0-

intro:

E---------------------0-1-0---------------------0-------|
B------1---3-1-0----1-------3-1------3-1-0------0-------|
G----2---2--------2----------------2-------2-0--1-------|
D--2-----------------------------2--------------2-------|
A-----------------------------------------------2-------|
E-----------------------------------------------0-------|


                   Am  G  F          G     Esus4 E
 
All the leaves are brown   and the sky is gray

 F               C  E  Am         F     Esus4  E
 
I've been for a walk       on a winter's day

                  Am  G  F     G     Esus4   E

I'd be safe and warm    if I was in L.A.

  Am   G     F          G              Esus4  E

California dreamin' on such a winter's day


Stopped in to a church I passed along the way
Well I got down on my knees and I pretend to pray
You know the preacher liked the cold
He knows I'm gonna stay
California dreamin' on such a winter's day


------ flute ------

play this while the flute plays:

    Am
-0-0-0-0-0-0-..--0--0--0--0--0--0-..----|
-1-1-1-1-1-1-..--0-h1--3--1-p0--1-..----|
-2-2-2-2-2-2-..--2--2--2--2--2--2-..>>>>| F  C  E  Am  F  Esus4  E
-2-2-2-2-2-2-..--2--2--2--2--2--2-..----|
-0-0-0-0-0-0-..--0--0--0--0--0--0-..----|
-0-0-0-0-0-0-..--0--0--0--0--0--0-..----|

then (still the flute playin)

   Am   G    F     G    Esus4   E      (2X)


All the leaves are brown and the sky is gray
I've been for a walk on a winter's day
If I didn't tell her I could leave today


 Am   G    F           G               Am
California dreamin' on such a winter's day

 Am   G    F           G               Am
California dreamin' on such a winter's day

 Am   G    F           G               Am
California dreamin' on such a winter's day
            
Hard to play? Try these video lessons and learn fast. | Correct




comments powered by Disqus
↑ Back to top | Tablatures and chords are parodies/interpretations of the original songs. You may use it for private study, scholarship, research or language learning purposes only