» » »

California Dreamin' Bass tabs (ver.1)

Artists:  A B C D E F G H I J K L M N O P Q R S T U V W X Y Z # 

California Dreamin' Bass tabs (ver.1)

Mamas And The Papas
Rating:
0/5 (0 votes)
Tabs too difficult? Try these video lessons and learn fast.
                Tuning : E A D G 	Time Signature: 4/4

  |       |       |       |          |       |       |       |         
|----------------------------------||---------------------------------|
|----------------------------------|*---------------------------------|
|---  4 mesures intro -------------||4-----------4--------------------|
|----------------------------------||----------------7-----------7----|
                                              
  |       |       |       |          |       |       |       |         
|----------------------------------|----------------------------------|
|----------------------------------|----------------------------------|
|----------------------------------|----------------------------------|
|-5-----------5---7-----------7----|-4-----------4---4-----------4----|

  |       |       |       |          |       |       |       |         
|----------------------------------|----------------------------------|
|----------------------------------|----------------------------------|
|----------------------------------|-7-----------7--------------------|
|-4-----------4---4-------5--------|-----------------4-----------4----|
  
  |       |       |       |          |       |       |       |         
|----------------------------------|----------------------------------|
|----------------------------------|----------------------------------|
|-4-----------4--------------------|----------------------------------|
|-----------------5-----------5----|-4-----------4---4-----------4----|
  
  |       |       |       |          |       |       |       |         
|----------------------------------|----------------------------------|
|----------------------------------|----------------------------------|
|-----------------------------3----|-4-----------4--------------------|
|-4-----------4---4---3---4--------|-----------------7-----------7----|
  
  |       |       |       |          |       |       |       |         
|----------------------------------|----------------------------------|
|----------------------------------|----------------------------------|
|----------------------------------|----------------------------------|
|-5-----------5---7-----------7----|-4-----------4---4-----------4----|
  
  |       |       |       |          |       |       |       |         
|----------------------------------|----------------------------------|
|----------------------------------|----------------------------------|
|-----------------------------3----|-4---4---4---4--------------------|
|-4-----------4---4---3---4--------|-----------------7---7---7---7----|
  
  |       |       |       |          |       |       |       |         
|----------------------------------|----------------------------------|
|----------------------------------|----------------------------------|
|----------------------------------|----------------------------------|
|-5---5---5---5---7---7---7---7----|-4---4---4---4---4---4---4---4----|
  
  |       |       |       |          |       |       |       |         
|------------------end of verse---||--- Solo verse after 2:nd verse---|
|---------------------------------*|notice! solo verse sligtly different
|-----------------------------3---||-4---4---4---4---4---4---4--------|
|-4---4---4---4---4---3---4-------||-----------------------------4----|

  |       |       |       |          |       |       |       |         
|----------------------------------|----------------------------------|
|----------------------------------|----------------------------------|
|-4---4---4---4---4---4---4--------|-4---4---4---4---4---4---4--------|
|-----------------------------4----|-----------------------------4----|
                  
  |       |       |       |          |       |       |       |         
|----------------------------------|----------------------------------|
|----------------------------------|----------------------------------|
|-4---4---4---4--------------------|-7---7---7---7--------------------|
|-----------------5---5---5---5----|-----------------4---4---4---4----|
  
  |       |       |       |          |       |       |       |         
|----------------------------------|----------------------------------|
|----------------------------------|----------------------------------|
|-4---4---4---4--------------------|----------------------------------|
|-----------------5---5---5---5----|-4---4---4---4---4---4---4---4----|
  
  |       |       |       |          |       |       |       |         
|----------------------------------|----------------------------------|
|----------------------------------|----------------------------------|
|-----------------------------3----|-4---4---4---4--------------------|
|-4---4---4---4---4---4---4--------|-----------------7---7---7---7----|
  
  |       |       |       |          |       |       |       |         
|----------------------------------|----------------------------------|
|----------------------------------|----------------------------------|
|----------------------------------|----------------------------------|
|-5---5---5---5---7---7---7---7----|-4---4---4---4---4---4---4---4----|
  
  |       |       |       |          |       |       |       |         
|----------------------------------|----------------------------------|
|----------------------------------|----------------------------------|
|-----------------------------3----|-4---4---4---4--------------------|
|-4---4---4---4---4---3---4--------|-----------------7---7---7---7----|
  
  |       |       |       |          |       |       |       |         
|----------------------------------|----------------------------------|
|----------------------------------|----------------------------------|
|----------------------------------|----------------------------------|
|-5---5---5---5---7---7---7---7----|-4---4---4---4---4---4---4---4----|


  |       |       |       |          |       |       |       |         
|----------------------------------|----------------------------------|
|----------------------------------|--Start again from the top and----|
|-----------------------------3----|-------and play one verse --------|
|-4---4---4---4---4---3---4--------|----and the following ending------|

 
  |       |       |       |          |       |       |       |         
|----------------   Play these 2 mesures 3 times    ------------------|
|----------------------------------|----------------------------------|
|-4-----------4--------------------|----------------------------------|
|-----------------7------------7---|-5-----------5---7------------7---|


  |       |       |       |          |       |       |       | The End        
|----------------------------------|----------------------------------|
|----------------------------------|----------------------------------|
|----------------------------------|-4--------------------------------|
|-5---5---5---5---5---5---5---5----|----------------------------------|
            
Tabs too difficult? Try these video lessons and learn fast.


comments powered by Disqus
↑ Back to top | Tablatures and chords are parodies/interpretations of the original songs. You may use it for private study, scholarship, research or language learning purposes only