» » »

Malmsteen Yngwie, Vengeance Tabs (ver.1)

Artists:  A B C D E F G H I J K L M N O P Q R S T U V W X Y Z # 

Vengeance Tabs (ver.1)

Malmsteen Yngwie Tabs
Rating:
0/5 (0 votes)
Vengeance lessons Tabs too difficult? Try these video lessons and learn fast
                ok so my girl friend thought i wouldnt be able ot learn it...SO I HAVE. i thought i may 
tab it out incase anyone else wanted to learn it, i cant work out the acoustic intro bit 
if anyone has it it would be greatfully apreciiated. il be back to add the solo section later.


Tuning - (Eb Ab Db Gb Bb Eb)

INTRO
riff A
||------------------------------------------------|------------------------||
||------------------------------------------------|------------------------||
||------------------------------------------------|---------6-9-7-6-7~~----||
||-0-0-0-3-0-0-7-0-8-0-0-12-0-0-8-0-7-0-0-3-0-0-7-|-----5-8----------------||
||------------------------------------------------|-4-7--------------------||
||------------------------------------------------|------------------------||
  pm-------------------------------------------|     pm--------------------||

|------------------------------------------------|-------------------------||
|------------------------------------------------|-------------------------||
|------------------------------------------------|-7h9p7p6-----------------||
|-0-0-0-3-0-0-7-0-8-0-0-12-0-0-8-0-7-0-0-3-0-0-7-|---------8-7-5-----------||
|------------------------------------------------|---------------8-7-------||
|------------------------------------------------|-------------------------||
  pm-----------------------------------------------------------------------||


|----------------------------------------------------------------------||
|---------------------------------------------------------8-11-10-8-10-||
|---------6-9-7-6-7~~~------------9-12-10-9-10~~------6-9--------------||
|-----5-8--------------------8-11-----------------5-8------------------||
|-4-7-------------------7-10-------------------------------------------||
|----------------------------------------------------------------------||
  pm------------|       pm--------------|         pm-------------------||

-------------------------------------------------|
-10-11-8-11----11---11---11----------------------|
------------10----9----7----6-7-9-6-7~~~~--------|play this after playing
-------------------------------------------------|the riff above 3 and a
-------------------------------------------------|half times
-------------------------------------------------|

VERSE
||-----------------------------------------------------------|
||-----------------------------------------------------------|
||-7--------------------------------7--7--9---7---3---5---5--|
||-7--------------------------------7--7--9---7---3---3---5--|
||-5-5-5-5-5-5-5-5-5-5-5-5-5-5-5-5--6--5--7---5---1-------3--|
||-----------------------------------------------------------|

|-------------------------------------------------------------||
|-------------------------------------------------------------||
|-7--------------------------------7--7--9---7---3---5---5----||
|-7--------------------------------7--7--9---7---3---3---5----||
|-5-5-5-5-5-5-5-5-5-5-5-5-5-5-5-5--6--5--7---5---1-------3----||
|-------------------------------------------------------------||
    PM--------------------------------------------------------||


PRE-CHORUS
||---------------------------------------------||
||---------------------------------------------||
||-3-----4-----------5-----9-7-6-----------7---||
||-3-----4-----------5-----------8-7-5-----7---||
||-1-----2-----------3-----------------8-7-5---||
||---------------------------------------------||

CHORUS = INTRO RIFF


AFTER 2ND CHORUS

|----------------------------------------------------------------------||
|---------------------------------------------------------8-11-10-8-10-||
|---------6-9-7-6-7~~~------------9-12-10-9-10~~------6-9--------------||
|-----5-8--------------------8-11-----------------5-8------------------||
|-4-7-------------------7-10-------------------------------------------||
|----------------------------------------------------------------------||
  pm------------|       pm--------------|         pm-------------------||

---------------------------------------------------|
-10-11-8-11----11---11---11------------------------|
------------10----9----7----6-7-9-6-7~~~~----------|
------------------------------------------7--------|
--------------------------------------------8-7----|
---------------------------------------------------|

||-----------------------------------------------||
||-----------------------------------------------||
||-------7-7-------5-5-------7-7---------7-5-----||   X2
||-----------------------------------5-7-----7-5-||
||-5-7-8-----5-7-8-----5-7-8-----5-8-------------||
||-----------------------------------------------||


BRIDGE
||-------------------------15----------17----------18----------12-----------|
||-17-15-14-15-18-15-14-15----15-14-15----15-14-15----15-14-15----13-12-13--|
||--------------------------------------------------------------------------|
||--------------------------------------------------------------------------|
||--------------------------------------------------------------------------|
||--------------------------------------------------------------------------|

|-13----------15----------17----------10----------12----------13-----------|
|----13-12-13----13-12-13----13-12-13----11-10-11----11-10-11----11-10-11--|
|--------------------------------------------------------------------------|
|--------------------------------------------------------------------------|
|--------------------------------------------------------------------------|
|--------------------------------------------------------------------------|

|-15----------9---------10-----------------||
|----11-10-11---10-9-10----10-9-10--/17~~--||
|------------------------------------------||
|------------------------------------------||
|------------------------------------------||
|------------------------------------------||
            
Submit corrections

comments powered by Disqus
↑ Back to top | Malmsteen Yngwie Tabs for Vengeance. Lyrics for acoustic guitar and electric guitar. Tablatures and chords are parodies/interpretations of the original songs. You may use it for private study, scholarship, research or language learning purposes only