>
 >
Paganinis 5th Caprice

Paganinis 5th Caprice Guitar Tabs

Malmsteen Yngwie - Paganinis 5th Caprice chords, tabs, tablatures, lyrics

Guitar lessons | Add/correct | Request | Top 50 tabs Artists:  A B C D E F G H I J K L M N O P Q R S T U V W X Y Z 0-9

Paganinis 5th Caprice Guitar Tabs – Malmsteen Yngwie

CD, Sheet music, Poster

Do you like Paganinis 5th Caprice? Share with your friends now
Tabs
Artist - Yngwie Malmsteen 
Song - Paganini`s 5th Caprice 

w w 
E---------------------5--9--12--17--16--14--12--------------------------
B------------------5----------------------------15--14--12--10----------
G---------------6-----------------------------------------------13------
D------------7----------------------------------------------------------
A---0-----7-------------------------------------------------------------
E------9----------------------------------------------------------------


h 
E------------------------------------------------------------0----------
B---------------------------------------------------------------10------
G---11--9----------------------------------------------2--5-------------
D----------12--11--9--------------------------------2-------------------
A---------------------12--11--9--7---------------3----------------------
E-----------------------------------10--9--7--5-------------------------


w 
E---8--12--17--20--19--17--16--------------------------------------0----
B------------------------------18--17--15--13---------------------------
G----------------------------------------------16--14--13--11--10-------
D-----------------------------------------------------------------------
A-----------------------------------------------------------------------
E-----------------------------------------------------------------------


h 
E-----------------------------------------------------------------------
B-----------------------------------------------------------------------
G---7--5--4-----------------------------------------------------0--1----
D------------7--6--------------------------------0--1--2--3--4----------
A------------------8--7--5-----------1--2--3--4-------------------------
E---------------------------8--7--5-------------------------------------



E------------------------0--1--2--3--4--5--4--3--2--1--0----------------
B---------0--1--2--3--4-----------------------------------4--3--2--1----
G---2--3----------------------------------------------------------------
D-----------------------------------------------------------------------
A-----------------------------------------------------------------------
E-----------------------------------------------------------------------


h w 
E------------------------------------------------5--||------------------
B---0--------------------------------------------1--||------------------
G------3--2--1--0-----------------------------------||*-----------------
D------------------4--3--2--1--0-----------------2--||*-----------------
A---------------------------------4--3--2--1--0-----||------3--7--3-----
E---------------------------------------------------||---5--------------



E-----------------------------------------------------------------------
B-----------------------------------------------------------------------
G-----------------------------------------------------------------------
D------------------7--5--3-----------------------------------------7----
A------5--7--5--3-----------7--5--3--------3--7--3-----5--7--5--3-------
E---7--------------------------------7--5-----------7-------------------



E-----------------------------------------------------------------------
B-----------------------------------------------------------------------
G-----------------------------------------------------------------------
D---5--3--------------------2--------0--3--0--------0-----------2-------
A---------7--5--3-----0--4-----4--0--------------2-----2-----3-----3----
E------------------7--------------------------3-----------3-------------



E------------------------------------------7--10--12--------0-----------
B------------------------------------5--9----------------1-----1--0-----
G---------------------2--------1--4-------------------2-----------------
D---------3--0-----------1--2-------------------------------------------
A------2--------3--0----------------------------------------------------
E---4-------------------------------------------------------------------



E------0--------5--3--1--0-----------------0-----------0--------5--3----
B---3-----3--1--------------3--1--0-----1-----1--0--3-----3--1----------
G------------------------------------2----------------------------------
D-----------------------------------------------------------------------
A-----------------------------------------------------------------------
E-----------------------------------------------------------------------



E---1--0-----------------0-----5--3--1--0--------7--5-------------------
B---------3--1--0-----2-----2--------------2--3--------8--6--5--3--1----
G------------------2----------------------------------------------------
D-----------------------------------------------------------------------
A-----------------------------------------------------------------------
E-----------------------------------------------------------------------



E-----------------------------------------------------------------------
B---0--------------------------1-----------0----------------------------
G------2--0-----0--2--------0--------------------------2-----------0----
D------------4--------3--2--------2--0--3-----0-----2-----------0-------
A------------------------------------------------3--------3--2----------
E-----------------------------------------------------------------------



E-----------------------------------------------------------------------
B---------------------------------------------------1--------0--3-------
G------------------------------------------------0----------------------
D------------3-----------3-----------3--------2--------0--3--------2----
A---2--0--3-----0-----3-----------2-----2--3----------------------------
E------------------4--------4--3----------------------------------------



E---------0-----------1-----------------3--0--------1-----------8--7----
B------1-----------1--------4--1--------------1--------3--0--1----------
G---0-----------2-----------------2--0-----------0----------------------
D------------3-----------4----------------------------------------------
A-----------------------------------------------------------------------
E-----------------------------------------------------------------------



E---5-----------------7--5-----------------0--5--3--1--0----------------
B------8--6--5-----6--------8--7--5--4--0-----------------3--2-----3----
G---------------5-----------------------------------------------2-------
D-----------------------------------------------------------------------
A-----------------------------------------------------------------------
E-----------------------------------------------------------------------



E---3--1--0-----------------1--0--------------------------------5--8----
B------------3--1--0-----1--------3--1--0--------------1--4--7----------
G---------------------0--------------------2--0-----2-------------------
D------------------------------------------------4----------------------
A-----------------------------------------------------------------------
E-----------------------------------------------------------------------



E------8-----------------------7--------------------------8--7--6--5----
B---6-----8--5--------------------8-----0-------------------------------
G---------------5--0-----------------7-----0----------------------------
D---------------------2-----------------------0-------------------------
A------------------------3-----------------------2-----3----------------
E---------------------------3-----------------------3-------------------



E---4-------------------------------------------------------------------
B------8--7--6--5--4----------------------------------------------------
G---------------------7--6--5--4----------------------------------------
D---------------------------------8--7--6--5--4--------------------2----
A------------------------------------------------8--7--6--5--4--3-------
E-----------------------------------------------------------------------



E-----------------------------------------------------------------------
B-----------------------------------------------------------------------
G---2--0-----0-----------------0-----------------------0----------------
D---------------3--0-----2--------3--0-----2--------------3--0-----2----
A---------2-----------3-----------------3--------3--2-----------3-------
E---------------------------3-----------------3-------------------------


2x 
E----------------------------------------------||-----------------------
B----------------------------------------------||-----------------------
G---------------------------------------------*||-----0-----------0-----
D---0--------3--0--------------------0--------*||--------2--------------
A------3--2--------2--0--3--2--0--------2------||--3--------3--1--------
E---------------------------------4--------4---||-----------------------



E------------------------------------1-----------0----------------------
B---------------------------------------1-----------2--------3----------
G------------------------------------------2--0--------0--------2-------
D---2--------3-----------2--------------------------------3--------3----
A------2--0-----3--0--------2-----0-------------------------------------
E---------------------3--------3----------------------------------------



E------------------------------------------------------------------6----
B------2-----------3-----------1----------------------------------------
G---------0-----------2-----------2--------3-----------2----------------
D---2--------2--3--------3--1--------1--0-----3--0--------2-------------
A---------------------------------------------------3--------3--0-------
E-----------------------------------------------------------------------



E------------5-----------3-----------2-----------3-----------1----------
B---6-----------7-----------3--0--------1-----------3-----------3-------
G------7--5--------5--4-----------2--------2--4--------4--1--------2----
D-----------------------------------------------------------------------
A-----------------------------------------------------------------------
E-----------------------------------------------------------------------



E------------------------------11-------------10--7--------8------------
B------4--0--------3---------------11--8-------------6--4-----7--5------
G---0--------0--------2-----0-------------10----------------------------
D---------------3--------3----------------------------------------------
A-----------------------------------------------------------------------
E-----------------------------------------------------------------------



E------7-----------8--7--6--5--4----------------------------------------
B---------6-----------------------8--7--6--5--4-------------------------
G---7--------7--5--------------------------------7--6--5--4-------------
D------------------------------------------------------------8--7--6----
A-----------------------------------------------------------------------
E-----------------------------------------------------------------------



E---------------------------------------------------4--3--2--1--0-------
B------------------------------------------------------------------4----
G------------------------------1--0-----0-------------------------------
D---5--4--------------------1--------------3--0-------------------------
A---------8--7--6--5--4--3-----------2-----------3----------------------
E-----------------------------------------------------------------------



E-----------------------------------------------------------------------
B---3--2--1--0----------------------------------------------------------
G---------------3--2--1--0----------------------------------------------
D---------------------------4--3--2--1--0--------------------3--1-------
A------------------------------------------4--3--2--1-----3-------------
E------------------------------------------------------4-----------3----



E-----------------------------------------------------------------------
B---------------------------------------------------------------1-------
G---------------1-----------1-----------3-----------1--------------0----
D---1--------------1-----------2-----------3-----------3--0-------------
A------4--1-----------3--0--------3--1--------4--2-----------3----------
E------------4----------------------------------------------------------



E---------------------------------0-----6--4----------------------------
B---------------------------1--------1--------6-------------------------
G---------3--0--------0--------0-----------------5-----------1----------
D---1-----------0--------2--------------------------6--2--3-----3--1----
A------4-----------3----------------------------------------------------
E-----------------------------------------------------------------------



E------------------------------------------3-----4--0-------------------
B------------------2-----------------3--4-----4--------1----------------
G------------2--3-----3--1--0-----------------------------1--0--1-------
D------------------------------3--1--------------------------------1----
A---4--3--1-------------------------------------------------------------
E-----------------------------------------------------------------------



E-----------------------------------------------------------------------
B------------------------------2--1-------------------------------------
G---------1-----------1--------------3--1-----------------1--------1----
D------3-----3--1--4-----4--3--------------4--3--1-----3-----3----------
A---4-----------------------------------------------4-----------4-------
E-----------------------------------------------------------------------



E-----------------------------------------------------------------------
B---2-----------0-----------0-------------------------------------------
G------1-----1-----1-----1-----1--------3--------0--3--0-----1--3--1----
D---------0-----------0-----------1--4-----4--1-----------3-------------
A-----------------------------------------------------------------------
E-----------------------------------------------------------------------



E-----------------------------------------------------------------------
B------4--3--1--------------------------------2-----------2-------------
G---0-----------3--1--0--------0--3--0-----3-----3-----3-----3-----1----
D------------------------3--1-----------1-----------2-----------3-------
A-----------------------------------------------------------------------
E-----------------------------------------------------------------------



E------------------------1-----------1-----------2-----------0----------
B---1--------4--1-----------2-----------3-----------4-----------2-------
G------1-----------------------3--1--------1-----------3-----------3----
D---------4--------4--3-----------------------4-----------4-------------
A-----------------------------------------------------------------------
E-----------------------------------------------------------------------



E------------------------------2--7--11---------------------------------
B------------------------0--4---------------2---------------------------
G----------------------------------------------3--0---------------------
D---4--1--------------4------------------1-----------1------------------
A---------4--1--2--4------------------------------------4--1------------
E-------------------------------------------------------------3--4------



E------------------4--7--------------------------------0-----------0----
B------------2--4--------------0-----------0--------0-----0-----1-------
G---------1-----------------1-----1-----2-----2--1-----------2----------
D------1-----------------1-----------4----------------------------------
A---2-------------------------------------------------------------------
E-----------------------------------------------------------------------



E------------2-----------2-----------4-----------6-----------7----------
B---1-----2-----2-----4-----4-----4-----4-----5-----5-----7-----7-------
G------3-----------4-----------5-----------6-----------7-----------9----
D-----------------------------------------------------------------------
A-----------------------------------------------------------------------
E-----------------------------------------------------------------------



E------7-----------6-----------7-----------4-----------5-----------2----
B---9-----9-----8-----8-----7-----7-----6-----6-----5-----5-----4-------
G------------9-----------8-----------7-----------6-----------5----------
D-----------------------------------------------------------------------
A-----------------------------------------------------------------------
E-----------------------------------------------------------------------



E------------3-----------0-----------1-----------------------0----------
B---4-----3-----3-----2-----2-----1-----1-----1--4--1-----0-----0-------
G------4-----------3-----------2-----------2-----------1-----------0----
D-----------------------------------------------------------------------
A-----------------------------------------------------------------------
E-----------------------------------------------------------------------



E-----------------------------------------------------------------------
B------2-----------3-----------3-----------3-----------4----------------
G---3-----3-----2-----2-----2-----2-----2-----2-----2-----2--------4----
D------------4-----------3-----------3-----------3--------------6-------
A------------------------------------------------------------7----------
E-----------------------------------------------------------------------



E-------------12--16----------10--------------11----------------12------
B---5--8--12--------------10------10------10------10-----9--12----------
G---------------------10--------------10--------------9-----------------
D-----------------------------------------------------------------------
A-----------------------------------------------------------------------
E-----------------------------------------------------------------------



E----------12--16------8--12--8------10--12--10------17--15--13---------
B---9--12----------10------------12--------------13--------------17-----
G-----------------------------------------------------------------------
D-----------------------------------------------------------------------
A-----------------------------------------------------------------------
E-----------------------------------------------------------------------



E-------------------8--12--8------10--12--10------17--15--13------------
B---15--13--12--10------------12--------------13--------------17--15----
G-----------------------------------------------------------------------
D-----------------------------------------------------------------------
A-----------------------------------------------------------------------
E-----------------------------------------------------------------------



E---------------15--13-------------------------13-----------------------
B---14--10--15----------17--15--13--12--8--13------17--15--13-----------
G--------------------------------------------------------------14-------
D-----------------------------------------------------------------------
A-----------------------------------------------------------------------
E-----------------------------------------------------------------------



E-----------12----------------------------10--8-------------------------
B-------12------15--13--12--10--9-----10---------12--10-----------------
G----------------------------------9---------------------12--10--9------
D---15------------------------------------------------------------------
A-----------------------------------------------------------------------
E-----------------------------------------------------------------------



E------8--5--------------8--5--------------------7--4-------------------
B------------7--3--------------5-----------------------3----------------
G---8--------------5--------------5-----------------------4--1----------
D---------------------6--------------7--------------------------0-------
A---------------------------------------7--------------------------2----
E------------------------------------------8--5-------------------------



E---------5--4--3--2--1-------------------------------------------------
B------------------------5--4--3--2--1----------------------------------
G---------------------------------------4--3--2--1----------------------
D---------------------------------------------------5--4--3--2--1-------
A------0-----------------------------------------------------------5----
E---4-------------------------------------------------------------------



E-----------------------------------------------------------------------
B-----------------------------------------------------------------------
G-----------------------------------------------------------------------
D------------------3--2-----2--0--------------0-----2-------------------
A---4--3--2--0--3-----------------2--0--3--2-----3--------2--0--3--2----
E------------------------4-----------------------------4----------------


w 
E-----------------------------------------------------------------------
B-----------------------------------------------------------------------
G-----------------------------------------------------------------------
D---0-----2-----------------------2-----------------------2-------------
A------3--------2--0--3--2--5--3--------2--0--3--2--5--3--------2--0----
E------------4-----------------------4-----------------------4----------


w 
E------------------5--9--12--17--16--14--12-----------------------------
B---------------5----------------------------15--14--12--10-------------
G------------6-----------------------------------------------13--11-----
D---------7-------------------------------------------------------------
A------7----------------------------------------------------------------
E---9-------------------------------------------------------------------


h 
E--------------------------------------------------------0--------------
B-----------------------------------------------------------10--14------
G---9-------------------------------------------------6-----------------
D------12--11--9-----------------------------------7--------------------
A-----------------12--11--9--7------------------7-----------------------
E-------------------------------10--9--7--5--9--------------------------


w 
E---12--17--21--19--17--16--14----------------------------0-------------
B-------------------------------17--15--14--12--10--9--7-----3--2--0----
G-----------------------------------------------------------------------
D-----------------------------------------------------------------------
A-----------------------------------------------------------------------
E-----------------------------------------------------------------------


h w 
E---------------------------------------0------9--12--17--21--24--22----
B------------------------------------------10---------------------------
G---2--1-----------------------------6----------------------------------
D---------4--2--0-----------------7-------------------------------------
A------------------4--2--0-----7----------------------------------------
E---------------------------9-------------------------------------------



E---21--19------------------------------------------0-------------------
B-----------22--21--19--17--15------------------------------------------
G-------------------------------18--16--14--13--11-----7--6--4----------
D---------------------------------------------------------------7--6----
A-----------------------------------------------------------------------
E-----------------------------------------------------------------------


h 
E-----------------------------------------------------------------------
B------------------------------------------------------------0--1--2----
G------------------------------------------------0--1--2--3-------------
D---------------------------------0--1--2--3--4-------------------------
A---9--7--5-----------1--2--3--4----------------------------------------
E------------9--7--5----------------------------------------------------



E---------0--1--2--3--4--5--4--3--2--1--0-------------------------------
B---3--4-----------------------------------4--3--2--1--0----------------
G---------------------------------------------------------3--2--1--0----
D-----------------------------------------------------------------------
A-----------------------------------------------------------------------
E-----------------------------------------------------------------------


h w 
E---------------------------------5-------------------------------------
B-----------------------------------------------------------------------
G---------------------------------6-------------------------------------
D---4--3--2--1--0-----------------2-------------------------------------
A------------------4--3--2--1--0----------------------------------------
E-----------------------------------------------------------------------

Craig Rogers Made This Honest





Comments


Popular Malmsteen Yngwie tabs & chords
Bedroom Eyes 1 Tabs
Dark Star Tabs
Deja Vu Tabs
Faster Than The Speed Of Light 1 Tabs
Hiroshima Mon Amour Tabs
Motherless Child Tabs
On The Run Again 1 Tabs
Teaser 1 Tabs
What Do You Want 1 Tabs
You Dont Remember Tabs


Song lyrics



↑ Back to top | Tablatures and chords are parodies/interpretations of the original songs. You may use it for private study, scholarship, research or language learning purposes only
© 2014 AZChords.com Contact us | Privacy policy | DMCA | Add/correct tabs | Request tabs | Top 50 tabs