>
 >
Judas 1

Judas 1 Guitar Tabs

Malmsteen Yngwie - Judas 1 chords, tabs, tablatures, lyrics

Guitar lessons | Add/correct | Request | Top 50 tabs Artists:  A B C D E F G H I J K L M N O P Q R S T U V W X Y Z 0-9

Judas 1 Guitar Tabs – Malmsteen Yngwie

CD, Sheet music, Poster

Do you like Judas 1? Share with your friends now
TabsTabs v2
Yngwie Malmsteen "Judas"


|----------------------------|----------------------------|-----------------
|----------------------------|----------------------------|-----------------
|----------------------------|----------------------------|-----------------
|------9--9-----10--10----7--|-7--------9--9--------------|----9--9-----10--
|---7--7--7-----7---7-----7--|-7--------7--7--7--7--7--7--|-7--7--7-----7---
|---0--------0---------0-----|----0--0--------0--0--0--0--|-0--------0------


------------|--------------|----------------------------|
------------|-3--3---------|----------------------------|
------------|-2--2-----4~--|----------------------------|
--10--------|-0--------4~--|------9--9-----10--10----7--|
--7---------|-0------------|---7--7--7-----7---7-----7--|
------0--0--|-------0------|---0--------0---------0-----|


|-----------------------------|--------------------------------------------|
|-----------------------------|--3-----------------------------------------|
|-----------------------------|--2------4~---------------------------------|
|----9--9-----10--10----------|--0------4~---------------------------------|
|-7--7--7-----7---7-----------|--0-----------------------------------------|
|-0--------0---------0--0--0--|--------------------------------------------|


|----------------------------|----------------------------|-----------------
|----------------------------|----------------------------|-----------------
|----------------------------|----------------------------|-----------------
|------9--9-----10--10----7--|-7--------9--9--------------|----9--9-----10--
|---7--7--7-----7---7-----7--|-7--------7--7--7--7--7--7--|-7--7--7-----7---
|---0--------0---------0-----|----0--0--------0--0--0--0--|-0--------0------


------------------|--------------------------------------------------------|
------------------|--3-----------------------------------------------------|
------------------|--2------4~---------------------------------------------|
---10-------------|--0------4~---------------------------------------------|
---7--------------|--0-----------------------------------------------------|
------0--0--0-----|--------------------------------------------------------|


|----------------------------|---------------------------------------------|
|----------------------------|---------------------------------------------|
|----------------------------|---------------------------------------------|
|------9--9-----10--10----7--|-7--------9--9-------------------------------|
|---7--7--7-----7---7-----7--|-7--------7--7-------------------------------|
|---0--------0---------0-----|----0--0--------0--12\10-8-7-5-3-------------|


|----------------------------------|-----------------|---------------------|
|----------------------------------|-3---------------|---------------------|
|----------------------------------|-2---4-----------|---------------------|
|-------9--9-----10--10------------|-0---4---xp.s----|---------------------|
|-------7--7-----7---7---7\--------|-0---------------|---7-----------------|
|-0--0--0-----0--------------0--0--|-----------------|---0dive-w/bar-------|


Verse

I cast my pearls before the swine, sealed and delivered

|-----------------5-----|-------2--4--------|-----5---------------5---5----|
|------5----------5-----|-----3------5------|-----5---------------6---6----|
|----5---------5--------|---2----------4----|---------------5--------------|
|--7-----5--3--------3--|-4--------------6--|-7------5-5\3-----------------|
|-----------------------|-------------------|------------------------------|
|-----------------------|-------------------|------------------------------|

Then I drink your toast of wine,

|------------------------|----------------------|-------2--4-------|--------
|-----3------3--0--0-----|-------5---------5----|-----3------5-----|-----5--
|--5-----4~-----2--1-----|-----5---------5------|---2----------4---|-----5--
|--5-----5~-----------2--|-5/7------5--3------3-|-4--------------6-|-7~-----
|------------------------|----------------------|------------------|--------
|------------------------|----------------------|------------------|--------

though it's bitter sweet       I'm eating from your hand

--------7--------|--------8-9--------|-------------------------------------|
--------8--------|------8-----10-----|-------10---------10--10-------------|
-----------7-----|----9----------9~--|----10------------10--10-------------|
--7--9--------9--|-10----------------|-12-------12\10-8---------8----------|
-----------------|-------------------|-------------------------------------|
-----------------|-------------------|-------------------------------------|

so neat                    pennies from heaven

|--------------------12~-|------------------------|----------7-------------|
|--------8---------------|-------10---------10----|------------------------|
|-----9--9--------9------|----10---------10-------|-7--6--9-----8----------|
|-10--------10-11--------|-12-------10-8-------8--|-7--7--9-----9---9\-----|
|------------------------|------------------------|------------------------|
|------------------------|------------------------|------------------------|


Chorus

You say you give, you say you love  But yet you live

|--------------------------|--------------------|--------------------------|
|--------------------------|--------------------|--------------------------|
|--------------------------|--------------------|--------------------------|
|----9--9-----10--10----7--|-7-----9--9---------|----9--9----10--10--------|
|----7--7-----7---7-----7--|-7-----7--7---------|----7--7-----7---7--------|
|-0--------0---------0-----|----0-------0-0-0-0-|-0--------0----------12\0-|


Judas, Judas, you say you give, you say you love

|---------------|-------------------------|--------------------------------|
|---------------|-------------------------|--------------------------------|
|--7------4~----|-------------------------|--------------------------------|
|--7------4~----|----9--9----10--10-----7-|-7-----9--9---------------------|
|--5---0--------|----7--7-----7---7-----7-|-7-----7--7---------------------|
|---------------|-0--------0---------0----|----0--------0-12\10-8-7-5-3----|


Judas, Judas

|-----------------------------|----------|------0--|
|-----------------------------|----------|---------|
|-----------------------------|--7--4----|---------|
|-------9--9-----10--10-------|--7--4----|---------|
|-------7--7-----7---7--------|----------|-2-------|
|-0--0--------0----------7\0--|----------|-0-------|


Verse

Sightseeing through the lights and shades of your mighty

|----------------5--|------------------4--|--------------------------------|
|-----5--------5----|-----3----------5----|-----5------------5-------------|
|---5--------5------|--------2-----4------|---5------------5-----5---------|
|-7------5-3--------|--4-------4-6--------|-7------5-7p5-3-------3---------|
|-------------------|---------------------|--------------------------------|
|-------------------|---------------------|--------------------------------|


collonades.  Now I get the picture of the

|-----------------0-----0--|-----------------5--|-------2-4----------------|
|--------3--3--0-----0-----|-----5---------5----|-----3-----5--------------|
|-----4--4-----2-----1-----|---5---------5------|---2---------4------------|
|--5-----------------------|-7------5--3--------|-4-------------6----------|
|--------------------------|--------------------|--------------------------|
|--------------------------|--------------------|--------------------------|


beauty and the beast.               I am the lamb you are 

|-------5--5--------7--|-8---------9----------|--------10-------------------|
|----------5------8----|---8---------10-------|--------10-----------10------|
|----5----------7------|-----9----------9-----|----10-----------10----------|
|-7-----------9--------|-------10---------11--|-12---------10-8-8-------10--|
|----------------------|----------------------|-----------------------------|
|----------------------|----------------------|-----------------------------|

the priest to crucify me.  

|------------------------|---------------------------10------|--------------7|
|--------8-----------10--|--------10-----------------10------|-5-----5--7--7-|
|-9--10--9--------9--9---|----10--10-------------10-------7--|-7--6-----9--8-|
|-----------10-11--------|-12---------10h12p10p8-------------|-7--7-----9--9-|
|------------------------|-----------------------------------|---------------|
|------------------------|-----------------------------------|---------------|


Chorus



Guitar solo

|-21p18----18p15----15p12----12p9----15-15-15p12-----12-12p9----9\6---|-9~\-
|-------20-------17-------14------11-------------14\---------11-----8-|-----
|---------------------------------------------------------------------|-----
|---------------------------------------------------------------------|-----
|---------------------------------------------------------------------|-----
|---------------------------------------------------------------------|-----

                                                              1/2
--3p2p0-------14p13p12-|-------------------------------------------|--------
--------3p2p0/---------|-15p14p12-11-12bf-rb12-11-12-11-12-12-11b--|-rb11---
-----------------------|-------------------------------------------|------11
-----------------------|-------------------------------------------|--------
-----------------------|-------------------------------------------|--------
-----------------------|-------------------------------------------|--------


--------------12h14-15p14p12----------------|---------------------------14--
-----------15----------------15p14p12-11----|---------------------17bf~-----
--9-12-11~-------------------------------14-|-12p11p9-----------------------
--------------------------------------------|---------12p11p9-8~------------
--------------------------------------------|-------------------------------
--------------------------------------------|-------------------------------


-14-|-14-18------14-19------14-21----14-18p14----14-18------14-|---14-18p14-
----|-------17bf-------17bf-------17----------18-------17bf----|-7----------
----|----------------------------------------------------------|------------
----|----------------------------------------------------------|------------
----|----------------------------------------------------------|------------
----|----------------------------------------------------------|------------


-----14------------------------------------------|-------------------------|
--17----17-14------------------------------------|-------------------------|
--------------16p15----16p15---------------------|-------------------------|
--------------------16-------16p14-16------------|----------14/17-14~------|
--------------------------------------16-16-13~--|-------------------------|
-------------------------------------------------|-14~---12----------------|

                                         1/2
|--------------------------------------------------------------------------|
|-------------------11h12-14-11-12-14-15------14-17-16-15-14-15p14---------|
|----------11h12h14----------------------16b-----------------------16-15~\-|
|-11h12h14-----------------------------------------------------------------|
|--------------------------------------------------------------------------|
|--------------------------------------------------------------------------|

      1/2
|---------------------------------|-----------------------------------------
|--17/19b--rb19-17-19-20-17-19-20-|-19-17-20-17-19-20-19-17-19-20-19-17-20--
|---------------------------------|-----------------------------------------
|---------------------------------|-----------------------------------------
|---------------------------------|-----------------------------------------
|---------------------------------|-----------------------------------------


-------------------------------|--------------------------------------------
-19-17-15-19-17-15-14-17-15-12-|-15-14-12-11-14-12-11\----12-10-------------
-------------------------------|-----------------------12-------12-11-11\0--
-------------------------------|--------------------------------------------
-------------------------------|--------------------------------------------
-------------------------------|--------------------------------------------

       hold bend------
----------------------------------------|----------------------------------|
----------------------------------------|----------------------------------|
--4bf--4--4--4--4--4--4---3--4----3--4--|--3--4--3~----0--3----------------|
----------------------------------------|---------------------2bf~---------|
----------------------------------------|----------------------------------|
----------------------------------------|----------------------------------|


|-3p0-------6p3-------3-8p6-------6-12p9----------9-|-15p12----18~--21-----|
|-----2---2-----5---5-------8---8--------11----11---|-------16/------------|
|-------3---------6-----------9-------------12------|----------------------|
|---------------------------------------------------|----------------------|
|---------------------------------------------------|----------------------|
|---------------------------------------------------|----------------------|


|--22bf---~~~---|
|---------------|
|---------------|
|---------------|
|---------------|
|---------------|


Verse

To make a living makes no difference.  

|-----5-----------5--|--------2-4--------|------5--------------------------|
|---------------5----|------3-----5------|------5--------------------------|
|---5---------5------|----2---------4----|-----------------5--2------------|
|-7------5--3--------|--4-------------6--|-7~------7--5--3------3----------|
|--------------------|-------------------|---------------------------------|
|--------------------|-------------------|---------------------------------|


You are what you do.    Some are false and some are true.  You haven't

|-------------------------|----------------------|------2-----------4h7p4---
|----3--3-----0-----0-----|-----5----------------|--------3-------5-------5-
|-5--5--4--4--2-----1-----|---5---------5--2-----|----2-----4--4------------
|----5-----5-----2-----2--|-7------5-3--3-----3--|-4--------6---------------
|-------------------------|----------------------|--------------------------
|-------------------------|----------------------|--------------------------


got a clue.              I'd rather reign in hell

-----|--------5--5--7-----------|-------8-----9----------|-5----------------|
-----|--------5--------8--8-----|-------8-------10-------|-6--------------3-|
--4--|-----5--------------7-----|-----9-------------9~---|-------7------0---|
-----|--7--------------------9--|-10--------10-----------|----7--7----------|
-----|--------------------------|------------------------|----------3-1-----|
-----|--------------------------|------------------------|------------------|


some said, than serve in heaven

|---------------5-----|-----------------0--|--------------------------------|
|-----5------5--------|--------------3-----|-5--5--7--7---------------------|
|---5---5----6-----6--|-----7--------0-----|-7--6--9--8---------------------|
|-5-------7--------7--|---7----------------|-7--7--9--9--9------------------|
|---------------------|-5------3--1--------|--------------------------------|
|---------------------|--------------------|--------------------------------|



Chorus




Solo


|-3p0---0-7-------7--12~--|-----------14h15-14-12-----------|-3p2p0---------
|-----0-----8---8---------|-17bf~-----------------15p14p12--|-------3p2p0---
|-------------9-----------|---------------------------------|-------------3~
|-------------------------|---------------------------------|---------------
|-------------------------|---------------------------------|---------------
|-------------------------|---------------------------------|---------------


-----------|------------------|----------------|----------------------------
-----------|------------------|----------------|----------------------------
--6p4p3h4--|-4bf--4bf-rb4--3--|-4p3~-----------|------------3h4h6p3-4-6-7-4-
-----------|------------------|----------2bf---|--4~----4h5-----------------
-----------|------------------|----------------|----------------------------
-----------|------------------|----------------|----------------------------


-------|-----------------------------------|--------------------------------
-------|--------------------------------0--|--------------------------------
--6-7--|-9-6-7-9/11-7-9-11-12p11~-------0--|----------11h12p11--------------
-------|---------------------------/17-----|-11h12h14----------14-12p11-12--
-------|-----------------------------------|--------------------------------
-------|-----------------------------------|--------------------------------

                                                                 1/2
--------------------------------------12h14-|-15p14p12-----------21b--rb21~-|
--------------11-12-14-12p11-11-12-14-------|----------15p14p12-------------|
-----11-12-14-------------------------------|-------------------------------|
--14----------------------------------------|-------------------------------|
--------------------------------------------|-------------------------------|
--------------------------------------------|-------------------------------|


|--/14-15-14p12-------------14p12--|-------12----------------------------12-
|---------------15-14p12-11--------|-15p14----15-14-12-15-14-12-12h14h15----
|----------------------------------|----------------------------------------
|----------------------------------|----------------------------------------
|----------------------------------|----------------------------------------
|----------------------------------|----------------------------------------


----------------------------|---------------------14h15--14p12--------------
--15p14p12-12h14h15-14-17bf-|-rb17p15p14-------14--------------15-12h14h15--
----------------------------|------------15h16------------------------------
----------------------------|-----------------------------------------------
----------------------------|-----------------------------------------------
----------------------------|-----------------------------------------------


--12h14h15--t18p15p14p12h14h15p14p12t18p14|-h15p14h19p14h15p14-t19p14/21~---
------------------------------------------|---------------------------------
------------------------------------------|---------------------------------
------------------------------------------|---------------------------------
------------------------------------------|---------------------------------
------------------------------------------|---------------------------------

                        1/2
--19~--------|-14------------14-----------------14-------14----|------------
-------17bf--|----17p14-17b------17p14-17-17bf-----17p14----17-|-p14--------
-------------|-------------------------------------------------|-----16p15--
-------------|-------------------------------------------------|------------
-------------|-------------------------------------------------|------------
-------------|-------------------------------------------------|------------
 
                 1/2                    1/2
-----------------------------|------------------------------|---------------
-----------------------------|------------------------------|---------------
-----------------------------|-4bf--rb4--17b---rb17---4~----|-0h3p0---------
--16p14-------14-16b--rb16\--|------------------------------|-------4p2p0---
--------14h16----------------|------------------------------|---------------
-----------------------------|------------------------------|---------------


---------------|---------6--7-----9--/--10--|-12-/--14--14--12-------------|
---------------|----------------------------|------------------------------|
---------------|---------3--4-----6--/---7--|--9-/--11--11---9-------------|
---------------|-4--------------------------|------------------------------|
--4p2-1---2----|----------------------------|------------------------------|
------------2--|-2---2----------------------|------------------------------|


fade out


The Music Shop (619)423-4970





Comments


Popular Malmsteen Yngwie tabs & chords
Cry No More 1 Tabs
Deja Vu 1 Tabs
Far Beyond The Sun 1 Tabs
I Am A Viking Tabs
Krakatau Tabs
Little Savage Tabs
Memories 1 Tabs
Queen Is In Love 1 Tabs
Teaser 1 Tabs
Vengeance Tabs


Song lyrics



↑ Back to top | Tablatures and chords are parodies/interpretations of the original songs. You may use it for private study, scholarship, research or language learning purposes only
© 2014 AZChords.com Contact us | Privacy policy | DMCA | Add/correct tabs | Request tabs | Top 50 tabs