>
 >
How Many Miles To Babylon

How Many Miles To Babylon Guitar Tabs

Malmsteen Yngwie - How Many Miles To Babylon chords, tabs, tablatures, lyrics

Guitar lessons | Add/correct | Request | Top 50 tabs Artists:  A B C D E F G H I J K L M N O P Q R S T U V W X Y Z 0-9

How Many Miles To Babylon Guitar Tabs – Malmsteen Yngwie

CD, Sheet music, Poster

Do you like How Many Miles To Babylon? Share with your friends now
TabsTabs v2
Yngwie Malmsteen "How Many Miles to Babylon"
tune down 1/2 step

fig 1
|-----------0----------------------------------|---------------------------|
|--------0-----0-----------0-------------------|---------------------------|
|-----0-----------2----------------------------|-------------%-------------|
|--------------------4--2-----1----------------|---------------------------|
|--------------------------------3--2--0-------|---------------------------|
|--0--------------------------------------2--0-|---------------------------|

                                                    1/2
|------------------------------------------------|-------------------------|
|------------------------------------------------|-------------------------|
|--16~---------------14---12~--------------------|-------------------------|
|----------------16------------13--16------------|--16b--rb16-14~----------|
|------------------------------------------------|-------------------------|
|------------------------------------------------|-------------------------|
|                                                |                         |
|                                                |                         |
|-----------0------------------------------------|-------------------------|
|--------0-----0-----------0---------------------|-------------------------|
|----0------------2------------------------------|-----------%-------------|
|--------------------4--2-----1------------------|-------------------------|
|--------------------------------3--2--0---------|-------------------------|
|-0---------------------------------------2--0---|-------------------------|


                                        1/2
|------------------------------------|-------------------------------------|
|------------------------------------|-------------------------------------|
|-14/16---------14---12~-------------|-------------------------------------|
|----------16----------------13-16---|--16b---rb16--14~--------------------|
|------------------------------------|-------------------------------------|
|------------------------------------|-------------------------------------|
|                                    |                                     |
|                                    |                                     |
|------------------------------------|-------------------------------------|
|------------------------------------|-----------------------0--------0----|
|--------------%---------------------|-------0-------0-----0--------0------|
|------------------------------------|-----2-------2-----2--------2--------|
|------------------------------------|---2-------2--------------2----------|
|------------------------------------|-0-------2-------3-------------------|


|-----------------------------------|--------------------------------------|
|-10h13-----12--10~-----------10----|--10h12~-----15-----/17~--------------|
|-----------------------12----------|--------------------------------------|
|-----------------------------------|--------------------------------------|
|-----------------------------------|--------------------------------------|
|-----------------------------------|--------------------------------------|
|                                   |                                      |
|                                   |                                      |
|-----------0-----------------------|-----------------2------------0-------|
|-------0-1---1----------3----------|--------0-------------------0---------|
|-----2----------------2-----2------|------0--------2----------0-----0-----|
|---2----------------0-----0---0----|----0--------0----------4---------2p0-|
|-0---------------------------------|----------------------2---------------|
|----------------3-2-------------2--|--3--------2--------0-----------------|


|----------------------------------------------|---------------------------|
|---13~------------13h15------------14---------|--17/19----17h19p17-16-17--|
|---------------------------14-----------------|---------------------------|
|----------------------------------------------|---------------------------|
|----------------------------------------------|---------------------------|
|----------------------------------------------|---------------------------|
|                                              |
|                                              |
|----------0---------------------0----------3--|-------3-2-----------------|
|-------------1--------------------------2-----|-----5-------5---4---4---4-|
|-------0--------0-------------2-------3-------|---4-------4-------4---4---|
|----2-----------------------2------2----------|-4-------------4-----------|
|-3-----------------3--2--0--------------------|---------------------------|
|----------------------------------------------|---------------------------|


-----------------------|---------------------------------------------------|
--16-------------------|-17~-----------15----------------------------------|
------17-16p14-12h14---|------------------------17--16--14~----------------|
-----------------------|-----------------------------------------16--------|
-----------------------|---------------------------------------------------|
-----------------------|---------------------------------------------------|
                       |                                                   |
                       |                                                   |
-----------------------|----------0-----------------------0----------------|
-----4-----------------|-------------1--------------------------0----------|
--------4--------------|-------0--------0--------------2--------------4----|
--4--------------------|----2-----------------------2--------------4-------|
-----------------------|-3-----------------3--2--0-----------2-------------|
-----------------------|---------------------------------------------------|


|------------------------------------------------------|
|------------12---12h13-----12tr13~--------------------|
|--12--14----------------------------------------------|
|------------------------------------------------------|
|------------------------------------------------------|
|------------------------------------------------------|
|                                                      |
|                                                      |
|------------------0-----------------------------------|
|----------0----------0--------0-----------0-----------|
|------------------------0--------0-----0-----0--------|
|-------4----------------------------2-----------------|
|----2-------------------------------------------2-----|
|-0------------2------------3--------------------------|


|--------------------------------------------------|-----------------------|
|--15/17-----------14------------------------------|-----------------------|
|-----------------------17--16---14~---------------|-12-14-12--------------|
|-----------------------------------------16-------|----------16p14~--\9---|
|--------------------------------------------------|-----------------------|
|--------------------------------------------------|-----------------------|
|                                                  |                       |
|                                                  |                       |
|-----------0-----------------------0--------------|-----------------------|
|--------------1-----------------------------------|--0--------------------|
|--------0--------0--------------2------------4----|--0--------------------|
|-----2-----------------------2------------4----4--|--2--------------------|
|--3-----------------3--2--0------------2----------|--2--------------------|
|--------------------------------------------------|--0--------------------|

                               1/2
|----------------------------|------------------------------|---------------|
|----------------------------|------------------------------|---------------|
|-16~------------------------|------------------------12-14-|-14/16---------|
|------16-16h19-17~--13--16--|-16b--rb16p14~-------14-------|-------16------|
|----------------------------|------------------------------|---------------|
|----------------------------|------------------------------|---------------|

                       1/2
---------------------|------------------------------------------------------|
---------------------|---------------------12----12-------------12----------|
---------------------|------------------12----12----12-11h12h14----14bf-----|
--16h19-17~--13--16--|-16b--rb16p14--14-------------------------------------|
---------------------|------------------------------------------------------|
---------------------|------------------------------------------------------|


---------------|------------------|-------------------|---------------------|
---------------|------------------|----------15---h17-|-15\13--13h15--------|
--rb14--14bf~--|-17p16p14\12--14--|--14h16~-----------|--------------14~-12-|
---------------|------------------|-------------------|---------------------|
---------------|------------------|-------------------|---------------------|
---------------|------------------|-------------------|---------------------|


|-14h15p14----14-----------------------------------|------------------------|
|----------17------17-16-17--p16-------------------|-15bf--15-13-12---------|
|--------------------------------17-16-14--14h16~--|----------------14~-----|
|--------------------------------------------------|--------------------16--|
|--------------------------------------------------|------------------------|
|--------------------------------------------------|------------------------|

        1/2
|-----------------|---------------------------------|-15h17p15p14----------|
|-----------------|-15bf~--rb15-13h15p13\12---------|--------------17~-----|
|-12-14-16b--16~--|-------------------------14------|----------------------|
|-----------------|-----------------------------16--|----------------------|
|-----------------|---------------------------------|----------------------|
|-----------------|---------------------------------|----------------------|


|--3h5p3p2--3~--|------2--3~----------------------7h20p7p5-----------------|
|---------------|---5------------------------------------------------------|
|---------------|----------------------------------------------------------|
|---------------|----------------------------------------------------------|
|---------------|----------------------------------------------------------|
|---------------|----------------------------------------------------------|


|-19~--19--17h19p17\15h17p15\14h13p14\12h14p12\11h12p11\8h11p8\7h8p7|\5h7~--|
|-------------------------------------------------------------------|-------|
|-------------------------------------------------------------------|-------|
|-------------------------------------------------------------------|-------|
|-------------------------------------------------------------------|-------|
|-------------------------------------------------------------------|-------|

                                  fig 2
|---------------|----------------|-----------------------------------------|
|---------------|----------------|-----------------------------------------|
|---------------|----------------|----9--9--------9--9----------9~---------|
|---------------|----------------|-----------------------------------------|
|--2------------|----------------|-----------------------0--0--------------|
|--0---0--------|----------------|-0--------0--0---------------------------|


|-------------------|-----------------------|------------------------------|
|-------------------|-----------------------|------------------------------|
|------------9--9~--|-----------------------|------------------------------|
|--11---------------|-----------------------|---------------------7--9-----|
|-------------------|-----------------------|---------------------5--7-----|
|------0--0---------|-----------------------|------------------------------|


||-----------------------------|-------------------|-----------------------|
||-----------------------------|-------------------|-----------------------|
||-------9--9-----9--9-----9~--|------------9--9~--|-----------------------|
||--(9)------------------------|--11---------------|-----------------------|
||--(7)------------------------|-------------------|-----------------------|
||-------------0--------0------|------0--0---------|-----------------------|


end 1             end 2               end 3

|---------------|-------------------|---------------------|----------------|
|---------------|-------------------|---------------------|----------------|
|---------------|-------------------|---------------------|----------------|
|----7--9-------|----------7----9---|---------------------|------9---------|
|----5--7-------|----------5----7---|---------------------|------7---------|
|---------------|-------------------|---------------------|------0---------|


|---------------|-------------|----------------|
|---------------|-------------|----------------|
|---------------|-------------|----------------|
|---------------|------9--9---|----------7-----|
|---------------|------7--7---|----------7-----|
|---------------|--0----------|----------------|


Verse
1.  In this wasteland without any shadow
2.  In this our endless searching for  the holy grail

|-------------------|-------------------|------------------|-----------------|
|-------------------|-------------------|------------------|-----------------|
|-------------------|-------------------|------------------|-----------------|
|-9--10--7--10--9---|-------10--7--10---|-9--10--10~---9~--|10-7-10----10---7|
|-7--7---7--7---7---|-------7---7--7----|-7--7---7---------|--------10----9-7|
|-------------------|-0--0--------------|------------------|-----------------|

there is no water for my dusty throat
there is no sleep for the souls who find no rest
|-------------------|---------------------|--------------------------------|
|-------------------|---------------------|--------------------------------|
|-------------------|---------------------|--------------------------------|
|-9--10--7--10--9---|------10--7--10~-----|--9--10--10----------2----------|
|-7--7---7--7---7---|------7---7--7~------|--7--7---7-----5-----3----------|
|-------------------|-0--0----------------|--------------------------------|

There is no rainbow
Ships on the desert

|----------------------|------------------|--------------------------------|
|----------------------|------------------|--------------------------------|
|----------------------|------------------|--------------------------------|
|-4--5--7--5h7p5\4-----|-9--10--7--10--9--|--------10--7--10---------------|
|-------5-----------5--|-7--7---7--7---7--|---------7--7--7----------------|
|----------------------|------------------|--0--0--------------------------|

Day is filled with silent sorrow       and for our sins there are no
without rigs or sails                  Flotsam and Jetsam drifting

|------------------|-----------------|------------------|---------------------|
|------------------|-----------------|------------------|---------------------|
|------------------|-----------------|------------------|---------------------|
|-9--10--10~---9~--|10-7-10----10---7|-9--10--7--10--9--|------10--7--10~-----|
|-7--7---7---------|--------10----9-7|-7--7---7--7---7--|------7---7--7~------|
|------------------|-----------------|------------------|-0--0----------------|

antidotes

|---------------------------|----------------------|
|---------------------------|----------------------|
|---------------------------|----------------------|
|--9--10--10----------2-----|-4--5--7--5h7p5\4-----|
|--7--7---7-----5-----3-----|-------5-----------5--|
|---------------------------|----------------------|


Pre-chorus
Eternal sand                                    There is no end to this no

|-------------------------|---------------------|--------------------------|
|-------------------------|---------------------|--------------------------|
|------2---2----2--2------|--------0--0--0--0---|--2--2--------0--0--------|
|------0---0----2--2------|--3--3--2--2--0--0---|--0--0--2--2--0--0--------|
|--0------------0--0------|--3--3--3--3---------|--------0--0--------3-----|
|------1---1--------------|--1--1--------3--3---|--1--1--------3--3--1-----|


man's land  We all  must pay

|-----------------|----------------------------|---------------------------|
|------------0----|----------------------------|---------------------------|
|--0----0----0----|---2--2---------------------|-------0--0----0--0--------|
|--2----0----0----|---0--0---2-----------------|-3--3--2--2----0--0--------|
|--3--------------|----------0---0-dive-w/bar--|-3--3--3--3----------------|
|-------3----3----|---1--1---------------------|-1--1----------3--3--------|

For the piper we dance while he plays

|--------------------------|-----------------------|-----------------------|
|--------------------------|-----------------------|-----------------------|
|--2--2--------0--0--------|-----0---0---0----4----|------4~---------------|
|--0--0--2--2--0--0--------|-----2---0---0---------|-----------------------|
|--------0--0--------3-----|-----3-----------------|------6~---------------|
|--1--1--------3--3--1-----|---------3---3---------|-----------------------|

dance while he plays

|------------------|-------------------|-----------------------|
|------------------|-------------------|-----------------------|
|-----0----0---4---|-------------------|------4~---------------|
|-----2----0-------|-------------------|-----------------------|
|--3--3------------|-------------------|------6~---------------|
|--1-------3-------|-------------------|-----------------------|

Chorus play fig 2
How many miles to babylon
How many years must I carry on

Solo

|------------------------------------------------|----------------------------|
|-10-13-12-13-10-13-12-13-9-12-10-12-9-12-10-12--|-8-12-10-12-8-12-10-12-7-10-|
|------------------------------------------------|----------------------------|
|------------------------------------------------|----------------------------|
|------------------------------------------------|----------------------------|
|------------------------------------------------|----------------------------|

                                                 ---8x-----------------------|
-----------------|---------------------|-8h12p8--t17p8h12p8--t16p7h10p7/22---|
--8-10-7-10-8-10-|-6-10-8-10-6-10-8-10-|-------------------------------------|
-----------------|---------------------|-------------------------------------|
-----------------|---------------------|-------------------------------------|
-----------------|---------------------|-------------------------------------|
-----------------|---------------------|-------------------------------------|


|-12~--13p12p10----------12h13p12----------------------------|--------------|
|---------------13p12p10----------13p12p10\9-----------------|--------------|
|--------------------------------------------12p10p9---------|--------------|
|----------------------------------------------------12p10p9/|15-14h15h17---|
|------------------------------------------------------------|--------------|
|------------------------------------------------------------|--------------|


-------------------13-15-17bf--t18bfp15-|-20bf~--15/17--|-17-18-15-18----18-|
----------14h15-17----------------------|---------------|-------------18----|
-14h15h17-------------------------------|---------------|-------------------|
----------------------------------------|---------------|-------------------|
----------------------------------------|---------------|-------------------|
----------------------------------------|---------------|-------------------|


----18----18--------------|-13h17p13------13p10----------------------------|
-17----15----14h17p14h15--|----------15------------------------------------|
--------------------------|-------------x-------10----9h10h12p10p9---------|
--------------------------|------------------------12--------------12bf----|
--------------------------|---------------------------------------------12-|
--------------------------|------------------------------------------------|

                               1/2
|----------------12-17~--------12b-----rb12-|-10---------------------------|
|-------------13-------------------x--------|-----13p12--10\9--------------|
|----------14-------------------------------|-------------------12---------|
|----10-14----------------------------------|------------------------------|
|-12----------------------------------------|------------------------------|
|-------------------------------------------|------------------------------|


|------------------------------------------8h10h12--p10p9\7h10-------------|
|----------------------------------9h10h12---------------------------------|
|-10p9---------------------9h10h12-----------------------------------------|
|-------12p10p9----9h10h12-------------------------------------------------|
|---------------12---------------------------------------------------------|
|--------------------------------------------------------------------------|


|-p8p7--h8p7--------|-12p17------17p14-------14p11------11\8-------13-------|
|------------10~\9--|-------19-x-------16----------13--------10-------13p12-|
|-------------------|---------------------17----------13--------10----------|
|-------------------|-------------------------------------------------------|
|-------------------|-------------------------------------------------------|
|-------------------|-------------------------------------------------------|


-------|------------19-19-17-19\---------22-19-17-19\-|---------------------|
--p10--|-12~--10-12/------------12-10-12/-------------|12h13p12p0----5------|
-------|----------------------------------------------|---------------------|
-------|----------------------------------------------|---------------------|
-------|----------------------------------------------|---------------------|
-------|----------------------------------------------|---------------------|


--2h3p2------|------2h3p2----------2h3p2---------2h|3p2--------2h3p2--------|
----------0h1|p0-----------4p1p0----------4p1p0----|----4p1p0--------4p1p0--|
-------------|-------------------------------------|------------------------|
-------------|-------------------------------------|------------------------|
-------------|-------------------------------------|------------------------|
-------------|-------------------------------------|------------------------|


-2h3p2--------2h3p2---------2h3p2p0--7~--|-----5-8/11p8----11-/14p11--------|
-------4p1p0---------4p1p0---------------|-5-7----------10------------13----|
-----------------------------------------|----------------------------------|
-----------------------------------------|----------------------------------|
-----------------------------------------|----------------------------------|
-----------------------------------------|----------------------------------|


-11h14p11--15p12-12\10-|-t15p12h14p12p11-t15p12-t15p14p12p11-t15p14p12p11---|
-----------------------|----------------------------------------------------|
-----------------------|----------------------------------------------------|
-----------------------|----------------------------------------------------|
-----------------------|----------------------------------------------------|
-----------------------|----------------------------------------------------|


-t17p14p12-12/19--19~---|------19~-------|--17p13h17p13h17-t20p13h17p13-----|
------------------------|----------------|----------------------------------|
------------------------|----------------|----------------------------------|
------------------------|----------------|----------------------------------|
------------------------|----------------|----------------------------------|
------------------------|----------------|----------------------------------|


-t20p13h17p13-t20p13h17p13-t20p17p13h17p13-t20p17p13\10-|-t17p14-t17p14p10--|
--------------------------------------------------------|-------------------|
--------------------------------------------------------|-------------------|
--------------------------------------------------------|-------------------|
--------------------------------------------------------|-------------------|
--------------------------------------------------------|-------------------|


-----------10h14/17p14---------|-----12h13-10h12p10-------------------------|
--------10-------------15------|9/10----------------------------------------|
--14/11-------------------14~--|--------------------14p12h14p12\10h12p10-9--|
-------------------------------|--------------------------------------------|
-------------------------------|--------------------------------------------|
-------------------------------|--------------------------------------------|


-------------10---------|----------------------------|---------------------|
----------10-----13bf---|----------------------------|---------------------|
--10--------------------|-12-12-12-12-12-12-12-12~---|-12------12-12-12----|
------12----------------|-14-14-14-14-14-14-14-11~---|-11--11--11-11-11----|
------------------------|----------------------------|---------------------|
------------------------|----------------------------|---------------------|


|--8--10--12--10--8h10p8-7------|----------------|
|---------------------------10--|-----12~-w/bar--|
|-------------------------------|----------------|
|-------------------------------|-5--------------|
|-------------------------------|----------------|
|-------------------------------|----------------|


chorus
end on E5


h = hammeron                      x = ghost note
p = pulloff                       % = repeat last bar
/\ = slide up/down                p.s. = pickscrape
~ = vibrato                       dive = dive with bar
t = tap
/---------------------------------\
|The Music Shop BBS (619)423-4970 |
\---------------------------------/





Comments


Popular Malmsteen Yngwie tabs & chords
Amberdawn Tabs
Black Star 1 Tabs
Crucify 1 Tabs
Crystal Ball 1 Tabs
Leviathan Tabs
Liar Tabs
Marching Out 1 Tabs
On The Run Again Tabs
On The Run Again 1 Tabs
Teaser Tabs


Song lyrics



↑ Back to top | Tablatures and chords are parodies/interpretations of the original songs. You may use it for private study, scholarship, research or language learning purposes only
© 2014 AZChords.com Contact us | Privacy policy | DMCA | Add/correct tabs | Request tabs | Top 50 tabs