>
 >
Gates Of Babylon

Gates Of Babylon Guitar Tabs

Malmsteen Yngwie - Gates Of Babylon chords, tabs, tablatures, lyrics

Guitar lessons | Add/correct | Request | Top 50 tabs Artists:  A B C D E F G H I J K L M N O P Q R S T U V W X Y Z 0-9

Gates Of Babylon Guitar Tabs – Malmsteen Yngwie

CD, Sheet music, Poster

Do you like Gates Of Babylon? Share with your friends now
Tabs
Artist - yngwie malmsteen
Song - Gates of Babylon

|-|-|-------------------------|----------------------------|------------|
|-|-|-------------------------|-----------------------1----|------------|
|-|-|--------------1----------|--------------1--2--2-------|------------|
|-|-|------2----3-----3--2----|------2----3----------------|------2-----|
|-|-|-------------------------|----------------------------|------------|
|-|-|-0-----------------------|-0--------------------------|-0----------|
1 2 3                         4                            5


--------------|-----------------------------------|---------------------|
---------0----|-----------------------------------|---------------------|
---1--2-------|-----------------------------------|--------------1------|
3-------------|-2-----1---------------------------|------2----3-----3---|
--------------|-------------3----2-----0----------|---------------------|
--------------|------------------------------1----|-0-------------------|
              6                                   7


-----|----------------------------|-------------------------|-----------|
-----|-----------------------1----|--------------------0----|--1--------|
-----|--------------1--2--2-------|--------------1--2-------|-----------|
2----|------2----3----------------|------2----3-------------|-----------|
-----|----------------------------|-------------------------|-----------|
-----|-0--------------------------|-0-----------------------|-----------|
     8                            9                         10


----------------------------|-----------------------------|-------------|
0----------------------1----|------------------------1----|-------------|
------2----1-----2----------|---------------1--2--2-------|-------------|
----------------------------|-------2----3----------------|-------2-----|
----------------------------|-----------------------------|-------------|
----------------------------|--0--------------------------|--0----------|
                            11                            12


--------------|--------------------------|------------------------------|
--------------|--------------------------|------------------------------|
---1----------|---------------1----------|------------------------------|
3-----3--2----|-------2----3-----3--0----|--2-----1---------------------|
--------------|--------------------------|--------------3----2----------|
--------------|--0-----------------------|------------------------------|
              13                         14


-----------|--------------------------|-----------------------------|---|
-----------|--------------------------|------------------------1----|---|
-----------|---------------1----------|---------------1--2--2-------|---|
-----------|-------2----3-----3--2----|-------2----3----------------|---|
0----------|--------------------------|-----------------------------|---|
------1----|--0-----------------------|--0--------------------------|---|
           15                         16                            17


------------------------|------------------------------------|----------|
-------------------0----|--1-----0----------------------1----|----------|
-------------1--2-------|--------------2----1-----2----------|----------|
-----2----3-------------|------------------------------------|----------|
------------------------|------------------------------------|----------|
0-----------------------|------------------------------------|--0-------|
                        18                                   19


----------------------|--------------------------|----------------------|
-----------------1----|--------------------------|----------------------|
--------1--2--2-------|---------------1----------|---------------1------|
2----3----------------|-------2----3-----3--2----|-------2----3-----3---|
----------------------|--------------------------|----------------------|
----------------------|--0-----------------------|--0-------------------|
                      20                         21

                                             B5
-----|------------------------------------|----------------------|------|
-----|------------------------------------|----------------------|------|
-----|------------------------------------|----------------------|------|
0----|--2-----1----------2-----1----------|--4-----4----4--4-----|------|
-----|--------------3----------------3----|--2-----2----2--2-----|------|
-----|------------------------------------|----------------------|------|
     22                                   23                     24

G5                     A5
--------------------|---------------|-----------------------------------|
--------------------|---------------|-----------------------------------|
--------------------|---------------|-----------------------------------|
--------------------|--2------------|------------0--------------0-------|
5-----5----5--5-----|--0------------|-------2--------------0------------|
3-----3----3--3-----|---------------|--3--------------2-----------------|
                    25              26

         B5                     G5                     A5
------|----------------------|----------------------|----------|--------|
------|----------------------|----------------------|----------|--------|
------|----------------------|----------------------|----------|--------|
------|--4-----4----4--4-----|----------------------|--2-------|--------|
------|--2-----2----2--2-----|--5-----5----5--5-----|--0-------|--------|
0-----|----------------------|--3-----3----3--3-----|----------|--------|
      27                     28                     29         30


----------------------------------|--------------------------------|----|
----------------------------------|--------------------------------|----|
----------------------------------|--------------------------------|----|
------4-----2----1----------------|--------------------------------|----|
2----------------------3-----0----|--2----3----2----0---------0----|----|
----------------------------------|----------------------3---------|----|
                                  31                               32


---------------|--------------------------------------------------|-----|
---------------|--------------------------------------------------|-----|
---------------|--------------------------------------------------|-----|
---------------|--------------------------------------------------|-----|
2----3----2----|--0--0--0--0--0--0--0--0--0--0--0--0--0--0--0--0--|-----|
---------------|--------------------------------------------------|-----|
               33                                                 34


------------------------------------------------|-----------------------|
------------------------------------------------|-----------------------|
------------------------------------------------|-----------------------|
------------------------------------------------|-----------------------|
0--0--0--0--0--0--0--0--0--0--0--0--0--0--0--0--|--0--0--0--0--0--0-----|
------------------------------------------------|-----------------------|
                                                35


------------------------------|-----------------------------------------|
------------------------------|-----------------------------------------|
------------------------------|-----------------------------------------|
------------------------------|-----------------------------------------|
0--0--0--0--0--0--0--0--0--0--|--0--0--0--0--0--0--0--0--0--0--0--0-----|
------------------------------|-----------------------------------------|
                              36


------------|--------------------------------|--------------------------|
------------|--------------------------------|--------------------------|
------------|--------------------------------|--------------------------|
------------|--------------------------------|--------------------------|
0--0--0--0--|--2----3----2----0---------0----|--2----3----2----0--------|
------------|----------------------3---------|--------------------------|
            37                               38


----------|--------------------------|-----------------------------|----|
----------|--------------------------|------------------------1----|----|
----------|---------------1----------|---------------1--2--2-------|----|
----------|-------2----3-----3--2----|-------2----3----------------|----|
----------|--------------------------|-----------------------------|----|
3----2----|--0-----------------------|--0--------------------------|----|
          39                         40                            41


------------------------|------------------------------------|----------|
-------------------0----|--1-----0----------------------1----|----------|
-------------1--2-------|--------------2----1-----2----------|----------|
-----2----3-------------|------------------------------------|----------|
------------------------|------------------------------------|----------|
0-----------------------|------------------------------------|--0-------|
                        42                                   43


----------------------|--------------------------|----------------------|
-----------------1----|--------------------------|----------------------|
--------1--2--2-------|---------------1----------|---------------1------|
2----3----------------|-------2----3-----3--2----|-------2----3-----3---|
----------------------|--------------------------|----------------------|
----------------------|--0-----------------------|--0-------------------|
                      44                         45


-----|------------------------------------|-----------------------------|
-----|------------------------------------|-----------------------------|
-----|------------------------------------|---------------1-------------|
0----|--2-----1---------------------------|-------2----3-----3--2-------|
-----|--------------3----2-----0----------|-----------------------------|
-----|-------------------------------1----|--0--------------------------|
     46                                   47


|-----------------------------|--------------------------|--------------|
|------------------------1----|---------------------0----|--1-----------|
|---------------1--2--2-------|---------------1--2-------|--------------|
|-------2----3----------------|-------2----3-------------|--------------|
|-----------------------------|--------------------------|--------------|
|--0--------------------------|--0-----------------------|--------------|
48                            49                         50


----------------------------|-----------------------------|-------------|
0----------------------1----|------------------------1----|-------------|
------2----1-----2----------|---------------1--2--2-------|-------------|
----------------------------|-------2----3----------------|-------2-----|
----------------------------|-----------------------------|-------------|
----------------------------|--0--------------------------|--0----------|
                            51                            52


--------------|--------------------------|------------------------------|
--------------|--------------------------|------------------------------|
---1----------|---------------1----------|------------------------------|
3-----3--2----|-------2----3-----3--0----|--2-----1----------2----------|
--------------|--------------------------|--------------3---------------|
--------------|--0-----------------------|------------------------------|
              53                         54

              B5                     G5
-----------|----------------------|----------------------|--------------|
-----------|----------------------|----------------------|--------------|
-----------|----------------------|----------------------|--------------|
1----------|--4-----4----4--4-----|----------------------|--------------|
------3----|--2-----2----2--2-----|--5-----5----5--5-----|--------------|
-----------|----------------------|--3-----3----3--3-----|--------------|
           55                     56                     57

A5                                                     B5
-------------|--------------------------------------|-------------------|
-------------|--------------------------------------|-------------------|
-------------|--------------------------------------|-------------------|
2------------|------------0--------------0----------|--4-----4----4-----|
0------------|-------2--------------0---------------|--2-----2----2-----|
-------------|--3--------------2--------------0-----|-------------------|
             58                                     59

         G5                     A5
------|----------------------|----------|-------------------------------|
------|----------------------|----------|-------------------------------|
------|----------------------|----------|-------------------------------|
4-----|----------------------|--2-------|--------4-----2----1-----------|
2-----|--5-----5----5--5-----|--0-------|--2----------------------------|
------|--3-----3----3--3-----|----------|-------------------------------|
      60                     61         62


-----------|--------------------------------|-----------------|---------|
-----------|--------------------------------|-----------------|---------|
-----------|--------------------------------|-----------------|---------|
-----------|--------------------------------|-----------------|---------|
3-----0----|--2----3----2----0---------0----|--2----3----2----|--0--0---|
-----------|----------------------3---------|-----------------|---------|
           63                               64                65


------------------------------------------|-----------------------------|
------------------------------------------|-----------------------------|
------------------------------------------|-----------------------------|
------------------------------------------|-----------------------------|
0--0--0--0--0--0--0--0--0--0--0--0--0--0--|--0--0--0--0--0--0--0--0-----|
------------------------------------------|-----------------------------|
                                          66


------------------------|-----------------------------------------------|
------------------------|-----------------------------------------------|
------------------------|-----------------------------------------------|
------------------------|-----------------------------------------------|
0--0--0--0--0--0--0--0--|--0--0--0--0--0--0--0--0--0--0--0--0--0--0-----|
------------------------|-----------------------------------------------|
                        67


------|--------------------------------------------------|--------------|
------|--------------------------------------------------|--------------|
------|--------------------------------------------------|--------------|
------|--------------------------------------------------|--------------|
0--0--|--0--0--0--0--0--0--0--0--0--0--0--0--0--0--0--0--|--2----3------|
------|--------------------------------------------------|--------------|
      68                                                 69


--------------------|--------------------------------|------------------|
--------------------|--------------------------------|------------------|
--------------------|--------------------------------|------------------|
--------------------|--------------------------------|------------------|
2----0---------0----|--2----3----2----0--------------|------------------|
----------3---------|----------------------3----2----|------------------|
                    70                               71

                                              B1˝
------------------|---------------------------------------------|-------|
------------------|--1----0-------------------0-----------------|-------|
------------------|------------2----1----2----------------------|-------|
------------------|---------------------------------------------|-------|
------------------|---------------------------------------------|-------|
0-----------------|---------------------------------------------|-------|
                  78                                            86

                         B1˝
-------------------------------------------|----------------------------|
1----0-------------------0-----------------|----------------------------|
----------2----1----2----------------------|----------------------------|
-------------------------------------------|----------------------------|
-------------------------------------------|--3----2----0---------0-----|
-------------------------------------------|-----------------4----------|
                                           94


-----|--------------------------------|---------------------------------|
-----|--------------------------------|---------------------------------|
-----|--------------------------------|---------------------------------|
-----|--------------------------------|---------------------------------|
2----|--3----2----0---------0----2----|--3----2----0---------0----2-----|
-----|-----------------4--------------|-----------------4---------------|
     95                               96


|--------------------------|---------------|----------------------------|
|--------------------------|---------------|----------------------------|
|--------------------------|---------------|----------------------------|
|--------------------------|---------------|----------------------------|
|--3--------0----3----0----|---------------|--1-------------1-----------|
|--------------------------|--2------------|-----------3---------3------|
97                         98              99


|----------------|----------------------|-----------------|-------------|
|----------------|----------------------|-----------------|-------------|
|----------------|----------------------|----------2------|---0---------|
|----------------|-----------------1----|---4-------------|-------------|
|----------------|---0--------3---------|-----------------|-------------|
|---0------------|----------------------|-----------------|-------------|
100              101                    102               103


-------|-----------------|--------------------|--------------------|----|
0------|---2-------------|--------------------|--------------------|----|
-------|-----------------|--------------------|--------------------|----|
-------|-----------------|---4----------2-----|--------------------|----|
-------|----------4------|--------------------|---5----------4-----|----|
-------|-----------------|--------------------|--------------------|----|
       104               105                  106                  107


----------------|-------------------|-------------------|---------------|
----------------|-------------------|-------------------|---------------|
----------------|-------------------|-------------------|---------------|
----------------|-------------------|-------------------|---------------|
2---------------|-------------5-----|---3---------2-----|---------------|
----------5-----|---3---------------|-------------------|---5-----------|
                108                 109                 110


-------|---------------------|---------------------------|--------------|
-------|---------------------|---------------------------|--------------|
-------|---------------------|---------------------------|--------------|
-------|---------------------|---1-------------1---------|--------------|
3------|---2-----------------|------------3---------3----|---0----------|
-------|---------------------|---------------------------|--------------|
       111                   113                         114


-------|---------------------------|----------------|-------------------|
-------|---------------------------|----------------|-------------------|
-------|---------------------------|----------------|-------------------|
-------|---------------------------|----------------|-------------------|
-------|---1-------------1---------|----------------|---0------0--------|
2------|------------3---------3----|---0------------|-------------------|
       115                         116              117


----------|------------------|-----------------|-----------------|------|
----------|------------------|----------0------|---2-------------|------|
----------|----------2-------|---0-------------|-----------------|------|
-----1----|---4--------------|-----------------|-----------------|------|
3---------|------------------|-----------------|----------4------|------|
----------|------------------|-----------------|-----------------|------|
          118                119               120               121


----------------|-------------------|-------------------|---------------|
----------------|-------------------|-------------------|---------------|
----------------|-------------------|-------------------|---------------|
4---------2-----|-------------------|-------------------|---------------|
----------------|---5---------4-----|---2---------------|---------------|
----------------|-------------------|-------------5-----|---3-----------|
                122                 123                 124


------|-------------------|-----------------|---------------------|-----|
------|-------------------|-----------------|---------------------|-----|
------|-------------------|-----------------|---------------------|-----|
------|-------------------|-----------------|---------------------|-----|
5-----|---3---------2-----|----------3------|---2-----------------|-----|
------|-------------------|---5-------------|---------------------|-----|
      125                 126               127                   129


------------------------------|---------------------|-------------------|
------------------------------|---------------------|-------------------|
------------------------------|---------------------|-------------------|
----------1----2----1---------|---------------------|-------------1-----|
2----3-------------------3----|---2-----------------|---2----3----------|
------------------------------|---------------------|-------------------|
                              130                   132


---------------|---------------------|----------------------------------|
---------------|---------------------|----------------------------------|
---------------|---------------------|----------------------------------|
2----1---------|---------------------|-------------1----2----1----------|
----------3----|---0-----------------|---2----3-------------------3-----|
---------------|---------------------|----------------------------------|
               133                   135


|---------------------------------|-------------------------------------|
|---------------------------------|-------------------------------------|
|---------------------------------|-------------------------------------|
|-------------1----2----1---------|-------------1----2----1-------------|
|---2----3-------------------3----|---2----3-------------------3--------|
|---------------------------------|-------------------------------------|
136                               137


|---------------------------------|---------------------------|---------|
|---------------------------------|---------------------------|---------|
|---------------------------------|----------------1----------|---------|
|---------------------------------|--------2----3-----3--2----|---------|
|---2----3----2----0--------------|---------------------------|---------|
|-----------------------3----2----|---0-----------------------|---0-----|
138                               139                         140


----------------------|---------------------------|---------------------|
-----------------1----|----------------------0----|---1-----0-----------|
--------1--2--2-------|----------------1--2-------|---------------2-----|
2----3----------------|--------2----3-------------|---------------------|
----------------------|---------------------------|---------------------|
----------------------|---0-----------------------|---------------------|
                      141                         142


-----------------|------------------------------|-----------------------|
------------1----|-------------------------1----|-----------------------|
1-----2----------|----------------1--2--2-------|----------------1------|
-----------------|--------2----3----------------|--------2----3-----3---|
-----------------|------------------------------|-----------------------|
-----------------|---0--------------------------|---0-------------------|
                 143                            144


-----|---------------------------|--------------------------------------|
-----|---------------------------|--------------------------------------|
-----|----------------1----------|--------------------------------------|
2----|--------2----3-----3--0----|---2-----1----------------------------|
-----|---------------------------|---------------3----2-----0-----------|
-----|---0-----------------------|--------------------------------1-----|
     145                         146


|---------------------------|------------------------------|------------|
|---------------------------|-------------------------1----|------------|
|----------------1----------|----------------1--2--2-------|------------|
|--------2----3-----3--2----|--------2----3----------------|------------|
|---------------------------|------------------------------|------------|
|---0-----------------------|---0--------------------------|---0--------|
147                         148                            149


-------------------|-------------------------------------|--------------|
--------------0----|---1-----0----------------------1----|--------------|
--------1--2-------|---------------2----1-----2----------|--------------|
2----3-------------|-------------------------------------|--------2-----|
-------------------|-------------------------------------|--------------|
-------------------|-------------------------------------|---0----------|
                   150                                   151


-----------------|---------------------------|--------------------------|
------------1----|---------------------------|--------------------------|
---1--2--2-------|----------------1----------|----------------1---------|
3----------------|--------2----3-----3--2----|--------2----3-----3------|
-----------------|---------------------------|--------------------------|
-----------------|---0-----------------------|---0----------------------|
                 152                         153

                                               B5
-----|-------------------------------------|-----------------------|----|
-----|-------------------------------------|-----------------------|----|
-----|-------------------------------------|-----------------------|----|
0----|---2-----1----------2-----1----------|---4-----4----4--4-----|----|
-----|---------------3----------------3----|---2-----2----2--2-----|----|
-----|-------------------------------------|-----------------------|----|
     154                                   155                     156

G5                      A5
--------------------|----------------|----------------------------------|
--------------------|----------------|----------------------------------|
--------------------|----------------|----------------------------------|
--------------------|---2------------|-------------0--------------0-----|
5-----5----5--5-----|---0------------|--------2--------------0----------|
3-----3----3--3-----|----------------|---3--------------2---------------|
                    157              158

          B5                      G5                      A5
------|-----------------------|-----------------------|-----------|-----|
------|-----------------------|-----------------------|-----------|-----|
------|-----------------------|-----------------------|-----------|-----|
------|---4-----4----4--4-----|-----------------------|---2-------|-----|
------|---2-----2----2--2-----|---5-----5----5--5-----|---0-------|-----|
0-----|-----------------------|---3-----3----3--3-----|-----------|-----|
      159                     160                     161         162


----------------------------------|-------------------------------------|
----------------------------------|-------------------------------------|
----------------------------------|-------------------------------------|
------4-----2----1----------------|-------------------------------------|
2----------------------3-----0----|---2----3----2----0---------0--------|
----------------------------------|-----------------------3-------------|
                                  163


|------------------|----------------------------------------------------|
|------------------|----------------------------------------------------|
|------------------|----------------------------------------------------|
|------------------|----------------------------------------------------|
|---2----3----2----|---0--0--0--0--0--0--0--0--0--0--0--0--0--0--0--0---|
|------------------|----------------------------------------------------|
164                165


|---------------------------------------------------|-------------------|
|---------------------------------------------------|-------------------|
|---------------------------------------------------|-------------------|
|---------------------------------------------------|-------------------|
|---0--0--0--0--0--0--0--0--0--0--0--0--0--0--0--0--|---0--0--0--0--0---|
|---------------------------------------------------|-------------------|
166                                                 167


---------------------------------|--------------------------------------|
---------------------------------|--------------------------------------|
---------------------------------|--------------------------------------|
---------------------------------|--------------------------------------|
0--0--0--0--0--0--0--0--0--0--0--|---0--0--0--0--0--0--0--0--0--0--0----|
---------------------------------|--------------------------------------|
                                 168


---------------|---------------------------------|----------------------|
---------------|---------------------------------|----------------------|
---------------|---------------------------------|----------------------|
---------------|---------------------------------|----------------------|
0--0--0--0--0--|---2----3----2----0---------0----|---2----3----2--------|
---------------|-----------------------3---------|----------------------|
               169                               170


---------------|---------------------------|----------------------------|
---------------|---------------------------|----------------------------|
---------------|----------------1----------|----------------1--2--2-----|
---------------|--------2----3-----3--2----|--------2----3--------------|
0--------------|---------------------------|----------------------------|
-----3----2----|---0-----------------------|---0------------------------|
               171                         172


-----|---------------------------|--------------------------------------|
1----|----------------------0----|---1-----0----------------------1-----|
-----|----------------1--2-------|---------------2----1-----2-----------|
-----|--------2----3-------------|--------------------------------------|
-----|---------------------------|--------------------------------------|
-----|---0-----------------------|--------------------------------------|
     173                         174


|------------------------------|---------------------------|------------|
|-------------------------1----|---------------------------|------------|
|----------------1--2--2-------|----------------1----------|------------|
|--------2----3----------------|--------2----3-----3--2----|------------|
|------------------------------|---------------------------|------------|
|---0--------------------------|---0-----------------------|---0--------|
175                            176                         177


-----------------------|---------------------------------|--------------|
--------------0-----0--|---1----0-------------------0----|---1----0-----|
--------1--2-----2-----|-------------2----1----2---------|--------------|
2----3-----------------|---------------------------------|--------------|
-----------------------|---------------------------------|--------------|
-----------------------|---------------------------------|--------------|
                       178                               179


--------------------|---------------------------------|-----------------|
---------------0----|---1----0------------------------|-----------------|
2----1----2---------|-------------2----1--------------|-----------------|
--------------------|-----------------------3----2----|-----------------|
--------------------|---------------------------------|-----------------|
--------------------|---------------------------------|-----------------|
                    180                               181

A5
--------------|---------------------------------------------------------|
--------------|---------------------------------------------------------|
2-------------|---2-----------------------------------------------------|
2-------------|---2-----------------------------------------------------|
0-------------|---0-----------------------------------------------------|
--------------|---------------------------------------------------------|

              182



Guitarra solista (solo)

|-|-|--17-|--16----------------|-----------------13-12-10---------------|
|-|-|-----|--------------18-15-|--------------13----------13-12-10-10---|
|-|-|-----|--------------------|--16----14-16---------------------------|
|-|-|-----|--------------------|----------------------------------------|
|-|-|-----|--------------------|----------------------------------------|
|-|-|-----|--------------------|----------------------------------------|
1 2 70    71                   72


---8--13-12-10-|-----------12-13-12-10----------------------------------|
12-------------|--13-12-10-------------13-12-10-12----12-10-9-----------|
---------------|-----------------------------------9-----------10-9-----|
---------------|--------------------------------------------------------|
---------------|--------------------------------------------------------|
---------------|--------------------------------------------------------|
               73


-------------------|-------------------------13-12-10----------|--------|
-------------------|-----------3--5--6----------------13-12-10-|--------|
7------------------|-----4--5-----------4----------------------|--------|
---10-9--7--6------|--7----------------------------------------|--------|
-------------------|-------------------------------------------|--------|
-------------------|-------------------------------------------|--------|
                   74                                          75

B2                      B2                         B2    B2  B2  B1
24----------------------24------|------------------22----22--22--22-----|
------18----------------------|--18-------------------------------------|
---------21-19-17-------------|-----21-19-17----------------------------|
------------------21-19-------|--------------21-19----------------------|
------------------------------|-----------------------------------------|
------------------------------|-----------------------------------------|
                              76

B2
22----|--20-19-17-16-20-19-17-16-20-19-17-16-20-19-16-19-16--17-16------|
------|------------------------------------------------------------18---|
------|-----------------------------------------------------------------|
------|-----------------------------------------------------------------|
------|-----------------------------------------------------------------|
------|-----------------------------------------------------------------|
      77

                                                            B2
------|-----------------------------------------------------10---|--10--|
18-17-|--15------------------------------------------------------|------|
------|-----17-16-14-16-14-13------------------------------------|------|
------|-----------------------15-14-12---------------------------|------|
------|--------------------------------15-14-12-11---------------|------|
------|--------------------------------------------13-12---------|------|
      78                                                         79


10-10-10---10-10-10----|--10-8--7-----7--8--10-8--7-----7--8--10-8--7---|
-----------------------|-----------10----------------10-----------------|
-----------------------|------------------------------------------------|
-----------------------|------------------------------------------------|
-----------------------|------------------------------------------------|
-----------------------|------------------------------------------------|
                       80


---7--8--10-8--7-----7--8--|--12-13-12-10-------------------------------|
10----------------10-------|--------------13-12-10-9--12-10-9-----9-----|
---------------------------|-----------------------------------10-------|
---------------------------|--------------------------------------------|
---------------------------|--------------------------------------------|
---------------------------|--------------------------------------------|
                           81


------------------------------------|-----------------------------------|
------------------------------------|-----------------------------3-----|
10-9--10-9--7-----9--7--------7-----|-----------------------4--5--------|
---------------10-------10-9-----10-|--9--7--10-9--7--6--7--------------|
------------------------------------|-----------------------------------|
------------------------------------|-----------------------------------|
                                    82

   B2            B1
--------------|--16---------|--16-13-17-13-16-13-17-13-16-13-17-13-16---|
5--5----------|-------------|-------------------------------------------|
--------------|-------------|-------------------------------------------|
--------------|-------------|-------------------------------------------|
--------------|-------------|-------------------------------------------|
--------------|-------------|-------------------------------------------|
              83            84


13-17-13-16-13-|--20----16----17----16----20----16----17----16----20----|
---------------|-----18----18----18----18----18----18----18----18-------|
---------------|--------------------------------------------------------|
---------------|--------------------------------------------------------|
---------------|--------------------------------------------------------|
---------------|--------------------------------------------------------|
               85

                                                  B2      B2
---16----15---------|---------------------------------------------|-----|
18----18------17----|---------------------------------------------|-----|
--------------------|--16-14-13----------------------11---11------|-----|
--------------------|-----------15-14-12--------------------------|-----|
--------------------|--------------------15-14-12-12--------------|-----|
--------------------|---------------------------------------------|-----|
                    86                                            87


------------------------------------8--7-----8--7-----8--7-----|--8-----|
------------------------------------------10-------10-------10-|--------|
------------------10-9-----10-9--------------------------------|--------|
10-9-----10-9-----------12-------12----------------------------|--------|
------12-------12----------------------------------------------|--------|
                                                               88


7-----13-12-10-13-12-10-17-13-17-19----17-19-17----20----16-19-16-------|
---10-------------------------------18----------18----18----------18----|


   B1˝  B1˝                                    B2
|--17---17--------16--------------|------------12------|--12-12-12-16---|
|-------------17------17----------|------12------------|----------------|
|-------------------------14--13--|--14----------------|----------------|
|---------------------------------|--------------------|----------------|
|---------------------------------|--------------------|----------------|
|---------------------------------|--------------------|----------------|
89                                90                   91

               B2
12-12-17-12-12-12---12-10-------|--------7------------------------------|
--------------------------12-10-|--10-9-----10-9--6--10-9--6------------|
--------------------------------|-----------------------------9--7--5---|
--------------------------------|---------------------------------------|
--------------------------------|---------------------------------------|
--------------------------------|---------------------------------------|
                                92

                       B2
--------------------|--12--------|--19-19-19-19-19-19-19-19-19-19-19----|
--------------------|------------|--------------------------------------|
--------------------|------------|--------------------------------------|
9--7--6-------------|------------|--------------------------------------|
---------7----------|------------|--------------------------------------|
---------------0----|------------|--------------------------------------|
                    93           94


19-19-19-19-19-19-19-19-19-19-19-19-19-|--19-20-19-17-19-17-16----------|
---------------------------------------|-----------------------18-17----|
---------------------------------------|--------------------------------|
---------------------------------------|--------------------------------|
---------------------------------------|--------------------------------|
---------------------------------------|--------------------------------|
                                       95


---------------------------------------------------------|--7--5--4-----|
15----------13-12----12-10----10-9-----9--------------6--|--------------|
---17-16-14-------14-------13-------10----10-9--7--9-----|--------------|
---------------------------------------------------------|--------------|
---------------------------------------------------------|--------------|
---------------------------------------------------------|--------------|
                                                         96


5--4-----4--------------------------------|--------3--8--11-15-20-15----|
------6-----6--5--6--5--3-----------------|--1--4-----------------------|
---------------------------5--4--2--1-----|-----------------------------|
------------------------------------------|-----------------------------|
------------------------------------------|-----------------------------|
------------------------------------------|-----------------------------|
                                          97

                      B2    B2    B2
-------------------|--14----14----14-----|-----------------10-15-10-----|
16-----------------|---------------------|--------------11----------11--|
---17--------------|---------------------|-----------12-----------------|
------17-----------|---------------------|--------12--------------------|
---------18-15-----|---------------------|-----13-----------------------|
-------------------|---------------------|--15--------------------------|
                   98                    99

              B2
----------|---12-----------|-----------------------|----------8---------|
----------|----------------|------------------8----|---10---------------|
12-12-----|----------------|-------------9---------|--------------------|
----------|----------------|---10------------------|--------------------|
----------|----------------|-----------------------|--------------------|
----------|----------------|-----------------------|--------------------|
          100              101                     102

                  B2
|---7-------12----12----|---13-10---------------------------------------|
|-----------------------|---------9-------7--10-7--6--------------------|
|-----------------------|--------------10-------------8--6--------------|
|-----------------------|-----------------------------------6--4--------|
|-----------------------|-----------------------------------------------|
|-----------------------|-----------------------------------------------|
103                     104

          B1˝                                                B˝
------|---17-----------|---14--------12----|-----------------------|----|
------|----------------|-------------------|---15---15-------15----|----|
------|----------------|-------------------|-----------------------|----|
3-----|----------------|-------------------|-----------------------|----|
------|----------------|-------------------|-----------------------|----|
------|----------------|-------------------|-----------------------|----|
      105              106                 107                     108

                    B2         B2  B2
----------------|-----------------------------------|-------------------|
----------------|---17------17-14-------17----------|-------------------|
16--------14----|------------------16------16-15-14-|------------16-14--|
----------------|-----------------------------------|---17-14-17--------|
----------------|-----------------------------------|-------------------|
----------------|-----------------------------------|-------------------|
                109                                 110


-------------------|---------------------------------------------10-12--|
-------------------|---------------15-13-12-------------10-12-13--------|
---------16-14-----|---------14-16----------14-12-11-12-----------------|
17-14-17-----------|---16-17--------------------------------------------|
-------------------|----------------------------------------------------|
-------------------|----------------------------------------------------|
                   111


14-15-17-19---------------|---------------------------|-----------------|
--------------------------|---16------------16--------|-----------------|
--------------------------|------------17--------17---|---14------------|
--------------------------|---------------------------|-----------------|
--------------------------|---------------------------|-----------------|
--------------------------|---------------------------|-----------------|
                          113                         114

B2
14-----|---------------10-15-18-15--------------------|-----------------|
-------|------------11-------------15-----------------|---17------------|
-------|---------12-------------------15--------------|-----------------|
-------|------12-------------------------17-----------|-----------------|
-------|------------------------------------17--------|-----------------|
-------|---15----------------------------------15-----|-----------------|
       115                                            116

                           B2
|---------12-19--12-19-----19-----19-----19-----20---|---17-20-17-------|
|------13---------------17-----17-----17-----17------|------------19----|
|---14-----------------------------------------------|------------------|
|----------------------------------------------------|------------------|
|----------------------------------------------------|------------------|
|----------------------------------------------------|------------------|
117                                                  118

                                       B2               B2
17-20-17----17-------17------------|----------------|---15-----15-------|
---------19----16-19----16-19-16---|---17-----------|-------14-----14---|
-----------------------------------|----------------|-------------------|
-----------------------------------|----------------|-------------------|
-----------------------------------|----------------|-------------------|
-----------------------------------|----------------|-------------------|
                                   119              120

                         B1˝
15-----------16------|---17-----------|---14--------------|-------------|
----14----14---------|----------------|-------------17----|-------------|
-------13------------|----------------|-------------------|-------------|
---------------------|----------------|-------------------|-------------|
---------------------|----------------|-------------------|-------------|
---------------------|----------------|-------------------|-------------|
                     121              122                 123

                                                   B2              B2
------------------12-------|-------------------|---12------12-----------|
15---------14--15----15-14-|---12--------------|---------------12--12---|
---------------------------|-------------14----|------------------------|
---------------------------|-------------------|------------------------|
---------------------------|-------------------|------------------------|
---------------------------|-------------------|------------------------|
                           124                 125

                                    B2
--------|----------------------------------|---------7--11-14-17-15-14--|
12--11--|---10----------10--8---10--10-----|------7---------------------|
--------|-------12--9----------------------|---8------------------------|
--------|----------------------------------|----------------------------|
--------|----------------------------------|----------------------------|
--------|----------------------------------|----------------------------|
        126                                127

                                  B2
---15-14----------14-19-18-17-|---23-----------|------17----------------|
17-------17-16-17-------------|----------------|---19----19-16----16----|
------------------------------|----------------|---------------17-------|
------------------------------|----------------|------------------------|
------------------------------|----------------|------------------------|
------------------------------|----------------|------------------------|
                              128              129


----------------------------------------|-------------------------------|
------------13-16-13-----------13-12----|------------13-12--------------|
17-14----14----------14-----14-------14-|---12-11----------14-12-11-----|
------16----------------16--------------|---------14----------------14--|
----------------------------------------|-------------------------------|
----------------------------------------|-------------------------------|
                                        130


---------------------------------------------------|--------------------|
---------------------------------------------------|--------------------|
---------11-9--------------------------------------|--------------------|
13-10----------13-10-9-----------------------------|--------------------|
------14----------------12-10-9--------------------|-------------9------|
---------------------------------12-11-------------|---11---12----------|
                                                   132

                   B2
---------------|------------5--8--12-17---12-17----17-20----|-----------|
---------------|---------5----------------------17----------|-----------|
---------------|--------------------------------------------|-----------|
---------------|---7----------------------------------------|-----------|
10---9----7----|--------------------------------------------|-----------|
---------------|--------------------------------------------|-----------|
               133                                          134

B1˝
20----------|---19-20-19-17-19-17-15-17-15-14-15-14-12-14-12-11-12-11---|
------------|-----------------------------------------------------------|
------------|-----------------------------------------------------------|
------------|-----------------------------------------------------------|
------------|-----------------------------------------------------------|
------------|-----------------------------------------------------------|
            135


11-12-11-12-14-12-|---12-11---------------------------------------------|
------------------|---------13-12-13-12-10----12----12----12----12------|
------------------|------------------------12----12----11----10---------|
------------------|------------------------------------------------13---|
------------------|-----------------------------------------------------|
------------------|-----------------------------------------------------|
                  136


------------|-----------------------------------------------------------|
------------|-----------------------------------------------------------|
9--11-9--8--|-----------------------------------------------------------|
------------|---9--10-9--7-----------7--9--10-9--7--9--7--5-----5--4----|
------------|---------------10-9--10-------------------------9----------|
------------|-----------------------------------------------------------|
            137

                                 B1
-----------|---------------------12----------------|--------------------|
-----------|---------------------------------------|---5----------------|
-----------|---------------------------------------|--------7-----------|
-----------|---------------------------------------|-------------10-----|
7--6--3----|--------3----2-------------------------|--------------------|
-----------|---7-----------------------------------|--------------------|
           138                                     178


---------------|---------------------------------|----------------------|
---------------|---------------------------------|----------------------|
----------9----|---9----7-------------------9----|---9----7-------------|
9----10--------|-------------10---9----10--------|-------------10-------|
---------------|---------------------------------|----------------------|
---------------|---------------------------------|----------------------|
               179                               180


---------------|--------------------------------------------------------|
---------------|--------------------------------------------------------|
---------------|---5----------------------------------------------------|
9----7----6----|--------------------------------------------------------|
---------------|--------------------------------------------------------|
---------------|--------------------------------------------------------|
               181



Solo acústico del final

|-|-|-----------0--5--8--12-17-12----------12-17---12---|---13----------|
|-|-|--------1--------------------13----13--------------|-------15------|
|-|-|---2----------------------------14-----------------|---------------|
|-|-|---------------------------------------------------|---------------|
|-|-|---------------------------------------------------|---------------|
|-|-|---------------------------------------------------|---------------|
1 2 182                                                 183


12--------------------------------------|-------------------------------|
----13--15--12--13----12----------------|-------------------------------|
-------------------14----13-14----------|-------------------------------|
-------------------------------14-15-12-|---14----12--------------------|
----------------------------------------|------15----14-15-14-12-14-12--|
----------------------------------------|-------------------------------|
                                        184


---------------------------------------|--------------------------------|
---------------------------------------|--------------------------------|
---------------------------------------|--------------------------------|
---------------------------------7-----|--------------------------------|
10-------10----------------7--10----10-|---8--7--------------------5----|
---13-12----13-12-10-8--10-------------|---------10-8--7--5--7--8-------|
                                       185


----------------|---4-----5---------|-----------------------------------|
----------------|-------------------|------6------5--6--5--3-----3--1---|
----------------|---4-----5---------|-------------------------5---------|
------5--7------|-------------------|---6-------------------------------|
7--8------------|-------------------|-----------------------------------|
----------------|-------------------|-----------------------------------|
                186                 187


--------------------|------------------------------------0---4---5------|
---1--3--1--0--1----|---0--1--0--------------0-------1------------------|
4-------------------|------------2--1----2-------2----------------------|
--------------------|---------------------------------------------------|
--------------------|---------------------------------------------------|
--------------------|---------------------------------------------------|
                    188


12--|---8---7-----------------7---------------|------------------10-8---|
----|-----------10--9----10---------10---9----|---10-------------12-----|
----|-----------------------------------------|--------9----------------|
----|-----------------------------------------|-------------10----------|
----|-----------------------------------------|-------------------------|
----|-----------------------------------------|-------------------------|
    189                                       190


----7--------7----|---12-8----------------------------------------------|
10------9---------|---------10------------------------------------------|
------------------|------------9----------------------------------------|
------------------|---------------10-9--7--6--6--7----------------------|
------------------|-----------------------------------7--7--------------|
------------------|-----------------------------------------8----7--7---|
                  191


---|----------------------------------7-----|---12----17-|
---|----------------------------3-----------|------------|
---|-----------------------2----------------|------------|
---|------------------2---------------------|------------|
---|-------------3--------------------------|------------|
4--|---4----5-------------------------------|------------|
   192                                      193





Comments


Popular Malmsteen Yngwie tabs & chords
Anguish And Fear Tabs
Cry No More Tabs
Dragonfly Tabs
Dreamin 1 Tabs
Echo Etude Tabs
Faultline Tabs
How Many Miles To Babylon 1 Tabs
Icarus Dream Suite Opus 4 Tabs
Krakatau 1 Tabs
Leonardo Tabs


Song lyrics



↑ Back to top | Tablatures and chords are parodies/interpretations of the original songs. You may use it for private study, scholarship, research or language learning purposes only
© 2014 AZChords.com Contact us | Privacy policy | DMCA | Add/correct tabs | Request tabs | Top 50 tabs