» » »

Echo Etude Tabs (ver.1)

Artists:  A B C D E F G H I J K L M N O P Q R S T U V W X Y Z # 

Echo Etude Tabs (ver.1)

Malmsteen Yngwie
Rating:
0/5 (0 votes)

Tabs too difficult? Try these video lessons and learn fast.
                Echo Etude                                    


                                                        Yngwie J. Malmsteen


use volume knob 

                                                                                
E||--19--|--17--19--15--19--14--19------15--|--14--15--12--15--10--15------12--|
B||------|--------------------------17------|--------------------------13------|
G||------|----------------------------------|----------------------------------|
D||------|----------------------------------|----------------------------------|
A||------|----------------------------------|----------------------------------|
E||------|----------------------------------|----------------------------------|


                                                                       
--10--12--8--12--7--12------8--|--7--8--5--8-----8--|-----------------|
------------------------10-----|--------------8-----|--7----5----4----|
-------------------------------|--------------------|-----------------|
-------------------------------|--------------------|-----------------|
-------------------------------|--------------------|-----------------|
-------------------------------|--------------------|-----------------|


                                                                         
----------------------5--|--8--5--7--12--|--11--12--8--12--7--8------7--|
--7----5--4--5--7--8-----|---------------|-----------------------10-----|
-------------------------|---------------|------------------------------|
-------------------------|---------------|------------------------------|
-------------------------|---------------|------------------------------|
-------------------------|---------------|------------------------------|


                                                               
-------------------------|---------------------|--------------|
--8--10--7--8------------|---------------------|--------------|
---------------9----9----|---------------------|--------------|
-------------------------|--7----5h-7h-5--4----|--------------|
-------------------------|---------------------|--7-----------|
-------------------------|---------------------|-----7--3--2--|


                                                      
--------------------------|-----------------8--7--8--|
--------------------------|--5--4--5--7--8-----------|
-----------------------4--|--------------------------|
--------------2--4--5-----|--------------------------|
-----------2--------------|--------------------------|
--0--2--3-----------------|--------------------------|


                                                      
--5--8-----8-----8-----8--|--------------8--7--5--7--|
--------8-----7-----5-----|--4--0--4--7--------------|
--------------------------|--------------------------|
--------------------------|--------------------------|
--------------------------|--------------------------|
--------------------------|--------------------------|


                                                             
--8--7--8--11--12--11----------|--8------7------------------|
-----------------------12--10--|-----10-----8--10--7--8-----|
-------------------------------|-------------------------9--|
-------------------------------|----------------------------|
-------------------------------|----------------------------|
-------------------------------|----------------------------|


                                                                          
--------------------------|--------------------------|-------------------|
--7-----------------------|--------------------------|-------------------|
-----8--9--5--8--4--5-----|--4-----------------------|-------------------|
-----------------------7--|-----5--7--4--5-----4-----|-------------------|
--------------------------|-----------------7-----6--|--7----------------|
--------------------------|--------------------------|-------------------|


                                                          
-----------------------|---------------------10--13--10--|
-----------------------|--10--9--10--12--13--------------|
------------------9----|---------------------------------|
--7----9----10---------|---------------------------------|
-----------------------|---------------------------------|
-----------------------|---------------------------------|


                                                                  
--12------10--8----7----|----------------|-----------------------|
------------------------|--10------------|-----------------------|
------------------------|------9---------|------------------7----|
------------------------|---------10--9--|--7----9----10---------|
------------------------|----------------|-----------------------|
------------------------|----------------|-----------------------|


                                                                      
-----------------------|----------------------|----------------------|
-----------------------|----------------------|----------------------|
--9--------9--7--5--4--|----------------------|----------------------|
-----------------------|--7----5----3----2----|----------------------|
-----------------------|----------------------|--5----3----2---------|
-----------------------|----------------------|-----------------5----|


                                                          
--------------------------|--------------------7--8--10--|
--------------------------|-------------9--10------------|
-----------------------7--|--10--9--10-------------------|
-----------------6--9-----|------------------------------|
-----------5--8-----------|------------------------------|
--0--4--7-----------------|------------------------------|
            
Tabs too difficult? Try these video lessons and learn fast.


comments powered by Disqus
↑ Back to top | Tablatures and chords are parodies/interpretations of the original songs. You may use it for private study, scholarship, research or language learning purposes only