» » »

Malmsteen Yngwie, Cantabile Tabs (ver.1)

Artists:  A B C D E F G H I J K L M N O P Q R S T U V W X Y Z # 

Cantabile Tabs (ver.1)

Malmsteen Yngwie Tabs
Rating:
0/5 (0 votes)
Cantabile lessons Tabs too difficult? Try these video lessons and learn fast
                Tune down a half step

Use a lot of vibrato!

3/4 time 120 bpm

|---------------------|------------------|-16---------------|------------------|
|--14-------16-14-----|-------------14---|------------------|-------------14---|
|---------------------|------------------|------------------|------------------|
|---------------------|------------------|------------------|------------------|
|---------------------|------------------|------------------|------------------|
|---------------------|------------------|------------------|------------------|


|-16--------18-16----|---------18-20----|-21---------------|
|--------------------|------------------|------------14----|
|--------------------|------------------|------------------|
|--------------------|------------------|------------------|
|--------------------|------------------|------------------|
|--------------------|------------------|------------------|


|---------------------14-16-18-16-14-------|-------------------|----------14---|
|------------14-16-18----------------18-16-|-14----------------|---------------|
|------------------------------------------|----17-------------|---------------|
|------------------------------------------|-------------------|---------------|
|------------------------------------------|-------------------|---------------|
|------------------------------------------|-------------------|---------------|


|-14---------14h16p14-|-13tr14-----------|------------------|------------------|
|---------------------|------------------|-16-------18-16---|------------16----|
|---------------------|------------------|------------------|------------------|
|---------------------|------------------|------------------|------------------|
|---------------------|------------------|------------------|------------------|
|---------------------|------------------|------------------|------------------|


|-18------------------------14-16-|-18-----------------|------------------|
|------------------14-16-18-------|----------14-h16p14-|-13---------16----|
|---------------------------------|--------------------|------------------|
|---------------------------------|--------------------|------------------|
|---------------------------------|--------------------|------------------|
|---------------------------------|--------------------|------------------|


|-16--------------|-------------21---|-20-------21-18-h20p18-|-16--------------|
|-----------------|------------------|-----------------------|------------16---|
|-----------------|------------------|-----------------------|-----------------|
|-----------------|------------------|-----------------------|-----------------|
|-----------------|------------------|-----------------------|-----------------|
|-----------------|------------------|-----------------------|-----------------|


|-16----18----15---|-16--18p16p15-16------|---------------------|
|------------------|----------------------|---------------------|
|------------------|----------------------|---------------------|
|------------------|----------------------|---------------------|
|------------------|----------------------|---------------------|
|------------------|----------------------|---------------------|


|-16-------18--16----|------------18----|-19-18-19----------|-------------19---|
|--------------------|------------------|-------------------|------------------|
|--------------------|------------------|-------------------|------------------|
|--------------------|------------------|-------------------|------------------|
|--------------------|------------------|-------------------|------------------|
|--------------------|------------------|-------------------|------------------|


|-18-21-19-18-16----|-16-19-18-16-------|------------------------|------------|
|----------------19-|-------------19-18-|-19------18h19p18-16-15-|-16---------|
|-------------------|-------------------|------------------------|------------|
|-------------------|-------------------|------------------------|------------|
|-------------------|-------------------|------------------------|------------|
|-------------------|-------------------|------------------------|------------|


|-14-------16--14----|------------16----|-17-16-17----------|-------------17---|
|--------------------|------------------|-------------------|------------------|
|--------------------|------------------|-------------------|------------------|
|--------------------|------------------|-------------------|------------------|
|--------------------|------------------|-------------------|------------------|
|--------------------|------------------|-------------------|------------------|


|-16-----16h17p16p14s13---|-14-----14h16p14p13------|-13-----13h14p13----------|
|-------------------------|--------------------16---|-----------------16p14----|
|-------------------------|-------------------------|--------------------------|
|-------------------------|-------------------------|--------------------------|
|-------------------------|-------------------------|--------------------------|
|-------------------------|-------------------------|--------------------------|


|-------|-16------18-16---|--------------18s21--|-21--------------------|
|-------|-----------------|---------------------|----------------14-----|
|-------|-----------------|---------------------|-----------------------|
|-------|-----------------|---------------------|-----------------------|
|-------|-----------------|---------------------|-----------------------|
|-------|-----------------|---------------------|-----------------------|


|---------------------14-16-18-|-21---------------|-------------------14-16-18-|
|------------14-16-18----------|------------14----|----------14-16-18----------|
|------------------------------|------------------|----------------------------|
|------------------------------|------------------|----------------------------|
|------------------------------|------------------|----------------------------|
|------------------------------|------------------|----------------------------|


|-21---------------|-------------------14-16-18-|-21--------16---|-------------|
|------------14----|----------14-16-18----------|----------------|-18----19-16-|
|------------------|----------------------------|----------------|-------------|
|------------------|----------------------------|----------------|-------------|
|------------------|----------------------------|----------------|-------------|
|------------------|----------------------------|----------------|-------------|


|--------------------------|----------------------------|
|-14--16p14p13-14----------|----------------------------|
|--------------------------|----------------------------|
|--------------------------|----------------------------|
|--------------------------|----------------------------|
|--------------------------|----------------------------|


|-16-------18--16----|------------18----|-19-18-19----------|-------------19---|
|--------------------|------------------|-------------------|------------------|
|--------------------|------------------|-------------------|------------------|
|--------------------|------------------|-------------------|------------------|
|--------------------|------------------|-------------------|------------------|
|--------------------|------------------|-------------------|------------------|


|-18-21-19-18-16----|-16-19-18-16-------|------------------------|------------|
|----------------19-|-------------19-18-|-19------18h19p18-16-15-|-16---------|
|-------------------|-------------------|------------------------|------------|
|-------------------|-------------------|------------------------|------------|
|-------------------|-------------------|------------------------|------------|
|-------------------|-------------------|------------------------|------------|


|-14-------16--14----|------------16----|-17-16-17----------|-------------17---|
|--------------------|------------------|-------------------|------------------|
|--------------------|------------------|-------------------|------------------|
|--------------------|------------------|-------------------|------------------|
|--------------------|------------------|-------------------|------------------|
|--------------------|------------------|-------------------|------------------|


|-16-----16h17p16p14s13---|-14-----14h16p14p13------|-13-----13h14p13----------|
|-------------------------|--------------------16---|-----------------16p14----|
|-------------------------|-------------------------|--------------------------|
|-------------------------|-------------------------|--------------------------|
|-------------------------|-------------------------|--------------------------|
|-------------------------|-------------------------|--------------------------|


|-------|-16------18-16---|--------------18s21--|-21--------------------|
|-------|-----------------|---------------------|----------------14-----|
|-------|-----------------|---------------------|-----------------------|
|-------|-----------------|---------------------|-----------------------|
|-------|-----------------|---------------------|-----------------------|
|-------|-----------------|---------------------|-----------------------|


|------------------14-16-18-|-21---------|-------------14-16-18-16-14----------|
|---------14-16-18----------|--------14--|----14-16-18----------------18-16-14-|
|---------------------------|------------|-------------------------------------|
|---------------------------|------------|-------------------------------------|
|---------------------------|------------|-------------------------------------|
|---------------------------|------------|-------------------------------------|


|-21---------------|-------------------14-16-18-|-21--------16---|-------------|
|------------14----|----------14-16-18----------|----------------|-18----19-16-|
|------------------|----------------------------|----------------|-------------|
|------------------|----------------------------|----------------|-------------|
|------------------|----------------------------|----------------|-------------|
|------------------|----------------------------|----------------|-------------|

Free time
|--------------------------------------13--------13h16p13----------------13-|
|-14-----------14h18p14-------------14--------------------14----------14----|
|--------------------------------13--------------------------13----13-------|
|-----------------------15----15--------------------------------15----------|
|--------------------------16-----------------------------------------------|
|---------------------------------------------------------------------------|


|-16---------13h16p13----------13---16---s21--21----------------------|
|---------------------14----14----------------------------------------|
|------------------------13-------------------------------------------|
|---------------------------------------------------------------------|
|---------------------------------------------------------------------|
|---------------------------------------------------------------------|
            
Submit corrections

comments powered by Disqus
↑ Back to top | Malmsteen Yngwie Tabs for Cantabile. Lyrics for acoustic guitar and electric guitar. Tablatures and chords are parodies/interpretations of the original songs. You may use it for private study, scholarship, research or language learning purposes only