>
 >
As Above So Below

As Above So Below Guitar Tabs

Malmsteen Yngwie - As Above So Below chords, tabs, tablatures, lyrics

Guitar lessons | Add/correct | Request | Top 50 tabs Artists:  A B C D E F G H I J K L M N O P Q R S T U V W X Y Z 0-9

As Above So Below Guitar Tabs – Malmsteen Yngwie

CD, Sheet music, Poster

Do you like As Above So Below? Share with your friends now
Bass TabsBass Tabs v2Tabs
AS ABOVE, SO BELOW by YNGWIE J.MALMSTEEN
De l'album Rising force 
Transcription par Wolf Marshall
Recopier par moi meme : Laurent B
J'ai essayé d'être le plus fidel possible, mais c'est pas evident.
Bon courage

Tablature :
B = bend
S = slide
P = pull-off
H = hammer-on
AH = Hamonique artificielle
T = tapping
PM = Palm mute


Intro
Guitare 1
                                          S
||-----------------------|-----------------------|--------------------|--------
||-----------------------|-----------------------|----------------5---|--------
||°--2---------2-----5---|--4-2-4--------4-/-7---|--5-4-5-------------|--------
||°--------2-2-----------|-----------2-2---------|--------------------|--------
||-----------------------|-----------------------|--------------------|--------
||-----------------------|-----------------------|--------------------|--------


       H P
------------------------------------||---------------------------|-------------
--6---5-6-5-------------------------||---------------------------|-------------
------------7---5---4-------2--1--°-||--2-----4--2--4------5--4--|--5---7--5--7
----------------------------------°-||---------------------------|-------------
------------------------------------||---------------------------|-------------
------------------------------------||---------------------------|-------------

                   E

                     H  P  P      P  P  S       H  P  P    P  P  S      H  P  P
----------------|--12-13-12-10-------------------------------------------------
--8--7--8-------|---------------13-12-10-/-9--10-12-10-9-----------------------
----------------|-----------------------------------------12-10-9-/-7--9-10-9-7
----------------|--------------------------------------------------------------
----------------|--------------------------------------------------------------
----------------|--------------------------------------------------------------


   P  P  S     P   P    P    P
--10-9-7-/-6--7-6-------7-6----------------------------------------------------
-------------------8-7-------7-8-----------------------------------------------


Couplet
                  There's a hole in the sky...
                         Am
                         PM...
----------------------||-----------------------------------|-------------------
----------------------||-----------------------------------|-------------------
----------------------||-----------------------------------|-------------------
----------------------||-----------------------------------|-------------------
----------------------||-----------------------------------|-------------------
--0-----0---0---0-----||--5---5-5-5---5-5-5---5-5-5---5-5--|--5---5-5-5---5-5-5


---------------|-------------------------------|-------------------------------|
---------------|-------------------------------|-------------------------------|
---------------|-------------------------------|-------------------------------|
---------------|-----------------------6--6-6--|--7--7-7-----------------------|
---------------|--5--5-5-7--7-7-8--8-8---------|---------7--7-7----------------|
--5-5-5---5-5--|------------------------------------------------8--8-8-7---7-7-|


----------------------------------|--------------------------------|-----------
----------------------------------|--------------------------------|-----------
----------------------------------|--------------------------------|-----------
----------------------------------|--------------------------------|-----------
----------------------------------|--------------------------------|-5---5-5-7-
--5---5-5-5---5-5-5---5-5-5---5-5-|5---5-5-5---5-5-5---5-5-5---5-5-|-----------

                                                             I will never die...

----------------------|-----------------------------------||------------------|
----------------------|-----------------------------------||------------------|
----------------------|-----------------------------------||------------------|
--------------6---6-6-|-7---7-7---------------------------||---7--------------|
--7-7-8---8-8---------|---------7---7-7-------------------||---7--------------|
----------------------|------------------8---8-8-7--7-7---||---5--------------|


                              PM...                     H P
------------0-----|----------------------------|------------------------------|
--5-----0---0-----|----------------------------|------------------------------|
--4---------------|--5-------------------------|------------------------------|
--2---------------|--5-------------------------|------------------------------|
------------------|--3---------3---3-3-3---3-3-|-5---3-5-3--2------------2----|
--4---------------|----------------------------|----------------5---4----0----|


                                                                         H P
------------------|------------------|----------------------------|------------
------------------|--5---------------|----------------------------|------------
------------------|--4---------------|--5-------------------------|------------
--7---------------|--2---------------|--5-------------------------|------------
--7---------------|------------------|--3---------3---3-3-3---3-3-|-5---3-5-3--2
--5---------------|--4---------------|----------------------------|------------

                    AH         AH
----------------|--------------------------|-----------------------|-----------
----------------|--------------------------|-----------------------|-----------
----------------|--------------------------|-----------------------|-----------
----------------|--------------------------|-----------------------|-----------
----------------|---5----------------------|-----------------------|--7--------
--5---4-----0-4-|----------4-5-7-------5-7-|-8--7-8-10-8-10-11-----|--0--------
Interlude
    Am                                          E7b9/G#

   H  P
--8-12-8------------8-10-12-8------------8----|-13-10------------10-12-13-10---
---------10---10-12-----------10---10-12---10-|-------12-9-12-13---------------
------------9--------------------9------------|--------------------------------
----------------------------------------------|--------------------------------
----------------------------------------------|--------------------------------
----------------------------------------------|--------------------------------

                     Am                                            E7b9/G#

                     H  P
------------10----|-8-12-8------------8-10-12-8------------8----|--10-7--------
-12-9-12-13----12-|--------10---10-12-----------10---10-12---10-|-------9-6-9-10
------------------|-----------9--------------------9------------|--------------
------------------|---------------------------------------------|--------------
------------------|---------------------------------------------|--------------
------------------|---------------------------------------------|--------------

                               Fo            Do         Fo          G#o

                                H  P
-7---13-10------------10----|-10-13-10-------10----------13-10------16-13------|
---9-------12-9-12-13----12-|----------12-------12-------------12-9-------15-12|
----------------------------|-------------13-------13-10-----------------------|
----------------------------|--------------------------------------------------|
----------------------------|--------------------------------------------------|
----------------------------|--------------------------------------------------|

   Am                                          F#o

                                                                  P
-17-12-------12-8------8---------------------|-5-----------8--5--------11--8---
-------13-10------10-----10------10----------|----7--------------7--4----------
---------------------9------9-------9--------|-------8--5----------------------
------------------------------10------10-/-7-|---------------------------------
---------------------------------------------|---------------------------------
---------------------------------------------|---------------------------------

                      Esus4

   P              P
--------14--11---------|-17--12----------12-17-12---------16--12----------16--12
-10--7----------13--10-|---------12---------------12--------------12------------
-----------------------|-------------14---------------14--------------13--------
-----------------------|--------------------------------------------------------
-----------------------|--------------------------------------------------------
-----------------------|--------------------------------------------------------


                Am                             F  
               SOLO
  S  B                           P                    P                 P
--------------|----------------13--12----------|-12-13-12----------12-13-12----
--/-15-12-----|--15-------------------15-13-15-|----------15-13-15----------15-
-----------13-|--------------------------------|-------------------------------
--------------|--------------------------------|-------------------------------
--------------|--------------------------------|-------------------------------
--------------|--------------------------------|-------------------------------
             Dm            E                    Am

         P     H  H        P    P         H   P     P     P      S
-------15-12-13-15-17----17--15--13----17--19--17-------15--13---/---12--------
-13-15-------------------------------------------------------------------------

                    F                                   Dm               E

           P          P        H  P             P        H        P  P     P  P
----12--17--12----|----------13-15-13-12---10-12-10----------10----------13-12-
-13------------13-|-------15------------------------13-12-13----13-12-10-------
------------------|-14-12------------------------------------------------------
------------------|------------------------------------------------------------
------------------|------------------------------------------------------------
------------------|------------------------------------------------------------

               Am

P     P     P   H                                                     P
-10-12-10-------------10-------------------------------------------------------
----------13--12--13------13--12--10--13--12--10--9--12--10--9------10--9------

  F                             Dm            E              Am

             P  P    P  P        P            S     P  P     T P  H  P  H    T P
-----------12-10-8-13-12-10-----------------------17-12-17-|-20-12-17-12-17-20-
--------10------------------13-12-10--12-10---/------------|-------------------
-9----9----------------------------------------------------|-------------------
---10------------------------------------------------------|-------------------
-----------------------------------------------------------|-------------------
-----------------------------------------------------------|-------------------

                                                       F

 P  H  P  H  P  H  H  P   H   w/bar         P  P        P      B            B 
--12-17-12-17-12-15-17-12----14----0--12--15-13-12-|-13---12----------12-------
---------------------------------------------------|-----------15----------15--
---------------------------------------------------|---------------------------
---------------------------------------------------|---------------------------
---------------------------------------------------|---------------------------
---------------------------------------------------|---------------------------

            Dm          E      Am

                            Partie en harmonie : Guitare 1
       B    B    P      B
--12-----------------------|--------------------------------------------------
-------15---15------13-15--|--15----------------------------------------------
---------------------------|--------------------------7--7-7-9-9-9-10-10-10-12
---------------------------|------7--7--9--9--10--10--------------------------
---------------------------|--------------------------------------------------
---------------------------|--------------------------------------------------

         F                                       Dm

                                                 B (15)
-------|-----------------------------------------12--------------------------
-------|-10-10-10-12-12-12--13-13-13--15-15-15---15--------------------------
-12-12-|---------------------------------------------------------------------
-------|---------------------------------------------------------------------
-------|---------------------------------------------------------------------
-------|---------------------------------------------------------------------

Partie en harmonie : Guitare 2

------------------------------------------------------|------------------------
---------------------------------------------12-12-12-|-13-13-13-15-15-15-17-17
---------------------------12-12-12-14-14-14----------|------------------------
--12--12--14--14--15-15-15----------------------------|------------------------
------------------------------------------------------|------------------------
------------------------------------------------------|------------------------


                 B (18)
----------------15--------------------------------------------------------
--17-18-18-18---18--------------------------------------------------------

Am                                                    F   

suite du solo
                    B    B
--------17--19--20-20---20--------------17-20-19-17-|-16-17-19-20-19-17-16-17
-20-------------------------------------------------|------------------------
----------------------------------------------------|------------------------
----------------------------------------------------|------------------------
----------------------------------------------------|------------------------
----------------------------------------------------|------------------------

             Dm                 E                 Am

             S          S                                 P    P       P    P
-19-20-19-17-/-16-19-17-/-16----17--16----------|-16----------------19---17---16
-----------------------------18--------18-17-18-|------18---17---15-------------
------------------------------------------------|-------------------------------
------------------------------------------------|-------------------------------
------------------------------------------------|-------------------------------
------------------------------------------------|-------------------------------


                  P    P    S        P              P         P     H
-19---17---15----------------------------------------------------------------
---------------17---16---14-/-13---14---13-------14---13------------------13-
--------------------------------------------15-------------15---14---15------

   F                                              Dm                     E
                                                                   P    H
-----------------------------------------------------13--14--16--14--13--14--13
-14--12------14--12----------------------12--14--15----------------------------
---------15----------15--14--12--14--15----------------------------------------

                   Am

                                                  H   P   P     H   P   S
-----------------|-----------------------------13--15--13--12----13--12-/-10--0
-----------------|------------------13--15--17---------------------------------
-----------------|------13--14--16---------------------------------------------
-15--14--12--14--|--15---------------------------------------------------------
-----------------|-------------------------------------------------------------
-----------------|-------------------------------------------------------------


                                                        F

    H      P    P  H   P    S   H  P   S  H   P  S      P   P  S    B
-----------------------------------------------------|-------------------------
-10--12--13--12--10--12--10-/-8--10--8-/-6--8--6-/-5-|-6-5---------------------
-----------------------------------------------------|-----7-5-/-4-10----------
-----------------------------------------------------|-------------------------
-----------------------------------------------------|-------------------------
-----------------------------------------------------|-------------------------

       Dm          E

  P    P       S          S             Reprise de l'interlude puis de l'intro...
-------------------------------||-------------------------------------------
-------------------------------||-------------------------------------------
---9-------7---/----5-----/----||---4---------------------------------------
-------------------------------||-------------------------------------------
-------------------------------||-------------------------------------------
-------------------------------||-------------------------------------------





Comments


Popular Malmsteen Yngwie tabs & chords
As Above So Below 1 Bass Tabs
Little Savage Bass Tabs
Blitzkrieg Tabs
Cantabile Tabs
I Am A Viking Tabs
I Am A Viking 1 Tabs
Icarus Dream Suite Opus 4 Tabs
Krakatau Tabs
Liar Tabs
Trilogy Suite 1 Tabs


Song lyrics



↑ Back to top | Tablatures and chords are parodies/interpretations of the original songs. You may use it for private study, scholarship, research or language learning purposes only
© 2014 AZChords.com Contact us | Privacy policy | DMCA | Add/correct tabs | Request tabs | Top 50 tabs