>
 >
All I Want Is Everything

All I Want Is Everything Guitar Tabs

Malmsteen Yngwie - All I Want Is Everything chords, tabs, tablatures, lyrics

Guitar lessons | Add/correct | Request | Top 50 tabs Artists:  A B C D E F G H I J K L M N O P Q R S T U V W X Y Z 0-9

All I Want Is Everything Guitar Tabs – Malmsteen Yngwie

CD, Sheet music, Poster

Do you like All I Want Is Everything? Share with your friends now
Tabs
Yngwie Malmsteen - All I Want is Everything
tune down 1/2 step

                                                 1/4
|---x\p.s.-----|---3---------2-----------------|-------------2-----------
|---x\---------|---3---------3-----------------|-------------3-----------
|--------------|---0---------2-----------------|-------------2-----------
|--------------|---0---------0-----------------|-------------0-----------
|--------------|-------------0-----2-----------|------2------0--2--2--x--
|--------------|---3---0--x--------0--0-0-0-0--|--3b--0--x-x----0--0--x--


                       w/ wah
------------|------------2--------|----3--------2-----------------------|
------------|------------3--------|----3--------3-----------------------|
------------|------------2--------|----0--------2-----------------------|
------------|---------5--0--------|----0--------0-----------------------|
-x--x--x----|---5--2--3--0--------|-------------0---2-------------------|
-x--x--x----|---3--0--------------|----3--0--x------0---0--0--0---------|



|------------2---------------------------------|--------------2----------
|------------3---------------------------------|--------------3----------
|------------2---------------------------------|--0-----------2----------
|------------0-------------2p0h2p0---2p0-------|--0-----------0----------
|-------2---------2----------------2------2p0--|-------2------0------2---
|--3b---0---------0----0-----------------------|--3----0---x---------0---



-------------------|--------------2--\----------------------------------|
-------------------|--------------3--\----------------------------------|
-------------------|--------------2--\----------------------------------|
-------------------|---------5----0--\----------------------------------|
---x--x--x--x------|--5---2--3----0--\----------------------------------|
---x--x--x--x------|--3---0---------------------------------------------|


  Verse  (play 4x)
 Rhy Fig.1                                 1/4  1/4====
||--------------------------------|--------------------------------------|
||--------------------------------|--------------------------------------|
||o-------------------------------|------------------2b------------------|
||o------------2--4---------------|--------2b---4b--------4--2-----------|
||--------------------------------|-----------------------------4--3--2--|
||-----0----2---------0--2--5--2--|--0--2-------------------------------5|



Pre-Chorus

|---2---------5-------|---------------|---7-------------------10~-------|
|---3---------6-------|---------------|---8-------------------11~-------|
|---2---------5-------|---------------|---7-------------------10~-------|
|---0---------0-------|---------------|---0--------------------8~-------|
|---------------------|---------------|---------------------------------|
|---------------------|---------------|---------------------------------|



|---------------------|---2-------------5---|------------------x--------|
|---------------------|---3------5--3---6---|------------------x--------|
|--hold-----------0---|---2-------------5---|------------------x--------|
|-----------------0---|---0-------------0---|------------------x--------|
|---------------------|---------------------|---------------------------|
|---------------------|---------------------|---------------------------|



|--7---7----7-------7----7---7----10----|--10---10---10---10---10--10-10-|
|--8---8----8-------8----8---8----11----|--11---11---11---11---11--11-11-|
|--7---7----7-------7----7---7----10----|--10---10---10---10---10--10-10-|
|--0---0----0-------0----0---0-----0----|---0----0----0----0----0---0--0-|
|---------------------------------------|--------------------------------|
|---------------------------------------|--------------------------------|



Chorus
Rhy Fig.3                          1/4
|-----------------2----3----------|--------------------------------------
|-----------------3----3----------|--------------------------------x--8--
|--0--------------2----0----------|--------------------------------x--7--
|--0--------------0----0----------|------2---------2---------------------
|------2---x--x---0---------------|------2---------2---------x--x--------
|--3---0---x--x-------------0--0--|-3b---0---3b----0---0--0--------------



---------|-------------2-------------|-------------2~------------------||
--x--8---|-------------3-------------|-------------3~----------end-Rhy-||
--x--7---|--0----------2-------------|-------------2~----------Fig-3--o||
---------|--0----------0----2--------|---------5---0~-----------------o||
---------|------2--x---0----2--------|--5--2---3-----------------------||
---------|--3---0--x--------0--0--0--|--3--0---------------------------||


Guitar Solo

|-----------|--------------------------|19/21-19-17-19-17-------17-------
|--20bf~~---|--19bf~---18bf~---rb18~---|------------------21p19----21p19-
|-----------|--------------------------|---------------------------------
|-----------|--------------------------|---------------------------------
|-----------|--------------------------|---------------------------------
|-----------|--------------------------|---------------------------------



--------17h19-21-19p17-19p17-------17-------------17-19-|21-19-17-19p17--
-p18-21----------------------21p19----21p19p18-21-------|----------------
--------------------------------------------------------|----------------
--------------------------------------------------------|----------------
--------------------------------------------------------|----------------
--------------------------------------------------------|----------------



------------------------------------------|-----------------------------|
--21b(22)-(21b)(25)--rb21~----------------|-20bf~-----------------------|
------------------------------------------|-----------------------------|
------------------------------------------|-----------------------------|
------------------------------------------|-----------------------------|
-----------------------------0dive-w/bar--|-----------------------------|



|----------------------------|---17bf--14----14bf------14------------14--|
|--19bf~------18bf~----rb18--|---17bf-----17------17~-----17p14-17bf-----|
|----------------------------|-------------------------------------------|
|----------------------------|-------------------------------------------|
|----------------------------|-------------------------------------------|
|----------------------------|-------------------------------------------|



|--------------------------------14-----------------------------------19b|
|-17p14----14-17----14-17-----14----14-17p14------14---------------------|
|-------16-------16-------16b----------------16bf----16b(17)--16--14~----|
|------------------------------------------------------------------------|
|------------------------------------------------------------------------|
|------------------------------------------------------------------------|



|-17-19--21-17b(18)--------------14-----|----------17b(18)--14-----------
|--------------------19p17--19~-----17--|-------14-------------17-14-----
|---------------------------------------|-16bf-----------------------16bf
|---------------------------------------|--------------------------------
|---------------------------------------|--------------------------------
|---------------------------------------|--------------------------------



--14------------------------------------------|-14-------------------------
-----17p14-16p14------14-------------------14-|----17-16p14------14--------
-----------------16bf----16bf--16-14-16bf-----|-------------16bf----16b(17)
----------------------------------------------|----------------------------
----------------------------------------------|----------------------------
----------------------------------------------|----------------------------



--------------------------------|-------------------14h16h17-------14-x--
--------------------------------|----------14h16h17----------16-16-------
--16bf--14--16-14----14bf--14~--|-14h16h17-------------------------------
------------------16------------|----------------------------------------
--------------------------------|----------------------------------------
--------------------------------|----------------------------------------



--19bf--19bf-rb19-17-x-19p17-------17------|-17-19-16b(17)--------17-----
-----------------------------21p19---------|---------------20bf~------20bf
---------------------------------------19--|-----------------------------
-------------------------------------------|-----------------------------
-------------------------------------------|-----------------------------
-------------------------------------------|-----------------------------



----------19bf---|-rb19----14----14~---|--14---------------14------------
--19-------------|------------17-------|-----17-14------14----14h17------
------18---------|---------------------|-----------16bf-------------16bf-
-----------------|---------------------|---------------------------------
-----------------|---------------------|---------------------------------
-----------------|---------------------|---------------------------------



------------------------------|------------14----------------------------
-14h17p14h16p14----16p14h17p16|p14------14----17p14-16p14------14--------
----------------17------------|----16bf-------------------16bf----16bf---
------------------------------|------------------------------------------
------------------------------|------------------------------------------
------------------------------|------------------------------------------


                 w/wah wah
---------------|-----------------------------------------|---------------
---------------|-----------------------------------------|---------------
------14~~~~\--|-4bf--4---3-----4--3--4bf--4--4bf--3~~---|-16bf--14--15--
--16-----------|-------------4---------------------------|---------------
---------------|-----------------------------------------|---------------
---------------|-----------------------------------------|---------------



--------------------------------------|----------------------------14----
--14----------------------------------|-11-12-13-14-13-12-11-12-13----13-
------15------16--14------------------|----------------------------------
----------16----------16--14--16~~~---|----------------------------------
--------------------------------------|----------------------------------
--------------------------------------|----------------------------------



----------------------------------11----12-|----------12-----------
-12-11-12-13-14-13-12-11-12-13-14----14----|-14-12-14----14-14-----
-------------------------------------------|-----------------------------
-------------------------------------------|-----------------------------
-------------------------------------------|-----------------------------
-------------------------------------------|-----------------------------
 slides, randomly


|----------------------------------------|-------------------------------
|-/17--14h17p14h17p14h17etc--------------|-14----------------------------
|----------w/bar---------------16bf--rb16|----14-------------------------
|----------------------------------------|-------16~--14-16--------------
|----------------------------------------|------------------16-14--16----
|----------------------------------------|-------------------------------



---------------|-----------------------------------14--------------------
---------------|-----------------------14h17-17bf-----17-16-14----16p14--
---------------|--------------14-16bf--------------------------17--------
---------------|--------14h16--------------------------------------------
--14p12-14-14--|--14/16--------------------------------------------------
---------------|---------------------------------------------------------



---------------------|---------------------------------------------------
---------------------|----14-16-17p16p14-16p14---------------------------
--16b(17)--16p14h16--|-16----------------------16b(17)-rb16p14----14-----
---------------------|-----------------------------------------16----16--
---------------------|---------------------------------------------------
---------------------|---------------------------------------------------



---------|----------------------------------|----------------------------|
---------|-17bf~~~---17bf--rb17--15--18~~~--|----18~~~~------------------|
---------|----------------------------------|----------------------------|
--16~~---|----------------------------------|----------------------------|
---------|----------------------------------|----------------------------|
---------|----------------------------------|----------------------------|



|-----------------------------------------------|-15h17h19~~~~~~~~~~-----
|--15h18---------------------------17-18-17-18--|------------------------
|--------16-----------------17h19---------------|------------------------
|-----------15--17/19p17h19---------------------|------------------------
|-----------------------------------------------|------------------------
|-----------------------------------------------|------------------------



--------------15-17-18--|-17-18-15-18----18------------------------------
-/18-15-17-18-----------|-------------18----17-17-15---------------------
------------------------|----------------------------15\-----------------
------------------------|--------------------------------15-17p15-14-----
------------------------|--------------------------------------------17--
------------------------|------------------------------------------------



------------|-----------------------------------------------------------|
--------15--|-19p15--19/22\19----------------------------------x-19~----|
-----14-----|-----------------15-14-------14-----------------x----------|
--16--------|-----------------------17-16-----17p16-17p16-17------------|
------------|-----------------------------------------------------------|
------------|-----------------------------------------------------------|



|------------------------------------------------------------------------
|-----------------------------------------------15-------------18p15-17--
|-14-17-17b(18)--17b(18)--17-14-17bf--p14--17bf----17-14-17bf------------
|------------------------------------------------------------------------
|------------------------------------------------------------------------
|------------------------------------------------------------------------



------|-15-------15-17----15-17-18-17-15-----------------18~~~~----------|
--18--|----17-18-------18----------------18bf---18p15--------------------|
------|------------------------------------------------------------------|
------|------------------------------------------------------------------|
------|------------------------------------------------------------------|
------|------------------------------------------------------------------|



|-----------------------------------------------------------------------|
|----x\p.s.-------------------------------------------------------------|
|----x\-----------------------------------------------------------------|
|-----------------------------------------------------------------------|
|-----------------------------------------------------------------------|
|-----------------------------------------------------------------------|



|-------------------------------------------|-------------2--------------|
|-----------------3-------------------------|-------------3--------------|
|-----------------2-------------------------|-------------2--------------|
|-----------------0-------------------------|---0-----2---0---2-----2tr0-|
|------2---x--x---0--------2----x--x--x--x--|---------0-------2----------|
|--3b--0---x--x------------0----x--x--x--x--|---3b------------0---0------|



|------------------------------------|-----------------------------------|
|------------------------------------|----------1--3---------------------|
|----repeat-above-bar----------------|----------0--2---------------------|
|------------------------------------|-0--------2--0--------7h9p7--------|
|------------------------------------|------2---3------7/9--------9p7----|
|------------------------------------|-3b---0----------------------------|



|-----------------------|-----------------------------------------------|
|-----------------------|-----------------------------------------------|
|-----------------------|---Chorus-play-Rhy-Fig.3-----------------------|
|-----------------------|-----------------------------------------------|
|------7--5--7/--7------|-----------------------------------------------|
|--0----------------0---|-----------------------------------------------|



h = hammeron                    Judy Letostak                         
t = tap (right hand)            The Music Shop BBS (619)423-4970 24hrs
~ = vibrato                     * = picked harmonic
bf = bend full                  tr = trill
rb = release bend               p.s. = pick scrape
dive = dive with bar            b = bend / step written over note
= repeat bar                  + = natural harmonic
The Music Shop BBS (619)423-4970  24hrs
Tons of music files, tab, lyrics, pictures, sound files....LORD, BRE
Falcon's Eye (interplanetary).  Internet Email and USENET. Unsigned/
Indie band support, free of cost ask for more details.





Comments


Popular Malmsteen Yngwie tabs & chords
Cest La Vie Tabs
Fire In The Sky Tabs
Fury Tabs
How Many Miles To Babylon 1 Tabs
Ill See The Light Tonight 1 Tabs
Judas 1 Tabs
Overture 1383 Tabs
Riot In The Dungeons Tabs
Trilogy Suite Tabs
What Do You Want Tabs


Song lyrics



↑ Back to top | Tablatures and chords are parodies/interpretations of the original songs. You may use it for private study, scholarship, research or language learning purposes only
© 2014 AZChords.com Contact us | Privacy policy | DMCA | Add/correct tabs | Request tabs | Top 50 tabs