>
 >
Miwaku No Roma

Miwaku No Roma Guitar Tabs

Malice Mizer - Miwaku No Roma chords, tabs, tablatures, lyrics

Guitar lessons | Add/correct | Request | Top 50 tabs Artists:  A B C D E F G H I J K L M N O P Q R S T U V W X Y Z 0-9

Miwaku No Roma Guitar Tabs – Malice Mizer

CD, Sheet music, Poster

Do you like Miwaku No Roma? Share with your friends now
Tabs
Malice Mizer - "Miwaku No Roma"

Standard Tuning

~ - ring note(s)
h - hammer on
p - pull off
x - dead note (muted note)


0:01
e:--3~-------3~--------------8-(8)---3-8-9-3--:
b:--5~-------5~--------5---5-5-----5----------:
g:--4~-------4~--------4-4--------------------:
d:--2~-------2~-------------------------------:
a:--------------------------------------------:
e:--------------------------------------------:

e:--------------------------------5~--:
b:--6--6~--6-5--5~--5-5--5~--5-5--5~--:
g:--7--7~--7-7--7~--7-5--5~--5-5--5~--:
d:--7--7~--7-7--7~--7-7--7~--7-7--5~--:
a:------------------------------------:
e:------------------------------------:

0:25
e:--------------------------------------------------------------------:
b:-----8------8---------8-------8------9------9~------9------9~-------:
g:-------9-----9~---------7----7-7~------9-----(9)------9-----(9)-----:
d:---9-------9-------10------10------------10----(10)-----10----(10)--:
a:--(7)-----7-------(10)----------------------------------------------:
e:--------------------------------------------------------------------:

e:--------------------------------------------------------------------:
b:-----8------8---------8-------8------9------9~------9------9~-------:
g:-------9-----9~---------7----7-7~------9-----(9)------9-----(9)-----:
d:---9-------9-------10------10------------10----(10)-----10----(10)--:
a:--(7)-----7-------(10)----------------------------------------------:
e:--------------------------------------------------------------------:

0:46
e:--x-7~-(7)-----------x-7~-(7)------------:
b:--x-8~--8--x-5-x-5-5-x-8~--8--x-5-x-5-5--:
g:--x-9~--9--x-7-x-7-7-x-9~--9--x-7-x-7-7--:
d:--x-9~--9--x-7-x-7-7-x-9~--9--x-7-x-7-7--:
a:-----------------------------------------:
e:-----------------------------------------:

e:--x-7~-(7)----9~--(9)---10~-(10)-----:
b:--x-8~--8--x-10~--10--x-11~--11--10--:
g:--x-9~--9--x-11~--11--x-12~--12--11--:
d:--x-9~--9--x-11~--11--x-12~--12--11--:
a:-------------------------------------:
e:-------------------------------------:

0:52
e:---------------------------------------------------------------:
b:---9--9--9~-----8-8-8~-(8)-----9--9--9~-------8~-----12--------:
g:---7--7--7~-----7-7-7~----(7)--7--7--7~-(7)---7~--------12-----:
d:--10-10-10~-----8-8-8~--------10-10-10~------10~-----------11--:
a:---------------------------------------------------------------:
e:---------------------------------------------------------------:

1:06
e:--0----0----0---0----0----0----0----0----0-----0----0----0----:
b:---1----1----1---1----1----1----1----1----1-1---1----1----1---:
g:----2----4----2---4----2----4----2----4----------4----2----4--:
d:--------------------------------------------------------------:
a:--------------------------------------------------------------:
e:--------------------------------------------------------------:

e:--0----0----0------0~--:
b:---1----1----1---0-0~--:
g:----2----4----2--------:
d:-----------------------:
a:-----------------------:
e:-----------------------:

1:22
e:--3~-------3~--------------8-(8)---3-8-9-3--:
b:--5~-------5~--------5---5-5-----5----------:
g:--4~-------4~--------4-4--------------------:
d:--2~-------2~-------------------------------:
a:--------------------------------------------:
e:--------------------------------------------:

e:--------------------------------5~--:
b:--6--6~--6-5--5~--5-5--5~--5-5--5~--:
g:--7--7~--7-7--7~--7-5--5~--5-5--5~--:
d:--7--7~--7-7--7~--7-7--7~--7-7--5~--:
a:------------------------------------:
e:------------------------------------:

1:32
e:--0~----0-0-----1-1-----0-0-0--:
b:--1~----1-1-----1-1-----0-0-0--:
g:--2~----2-2-----2-2-----2-2-2--:
d:-------------------------------:
a:-------------------------------:
e:-------------------------------: x1

e:--0-0-----1-1-----1-1-----0-0-0--:
b:--1-1-----1-1-----1-1-----0-0-0--:
g:--2-2-----2-2-----2-2-----2-2-2--:
d:---------------------------------:
a:---------------------------------:
e:---------------------------------: x3

2:13
e:--x-7~-(7)-----------x-7~-(7)------------:
b:--x-8~--8--x-5-x-5-5-x-8~--8--x-5-x-5-5--:
g:--x-9~--9--x-7-x-7-7-x-9~--9--x-7-x-7-7--:
d:--x-9~--9--x-7-x-7-7-x-9~--9--x-7-x-7-7--:
a:-----------------------------------------:
e:-----------------------------------------:

e:--x-7~-(7)----9~--(9)---10~-(10)-----:
b:--x-8~--8--x-10~--10--x-11~--11--10--:
g:--x-9~--9--x-11~--11--x-12~--12--11--:
d:--x-9~--9--x-11~--11--x-12~--12--11--:
a:-------------------------------------:
e:-------------------------------------:

2:20
e:--0----0----0---0----0----0----0----0----0-----0----0----0----:
b:---1----1----1---1----1----1----1----1----1-1---1----1----1---:
g:----2----4----2---4----2----4----2----4----------4----2----4--:
d:--------------------------------------------------------------:
a:--------------------------------------------------------------:
e:--------------------------------------------------------------:

e:--0----0----0------0~--:
b:---1----1----1---0-0~--:
g:----2----4----2--------:
d:-----------------------:
a:-----------------------:
e:-----------------------:

2:36
e:--3~-------3~--------------8-(8)---3-8-9-3--:
b:--5~-------5~--------5---5-5-----5----------:
g:--4~-------4~--------4-4--------------------:
d:--2~-------2~-------------------------------:
a:--------------------------------------------:
e:--------------------------------------------:

e:--------------------------------5~--:
b:--6--6~--6-5--5~--5-5--5~--5-5--5~--:
g:--7--7~--7-7--7~--7-5--5~--5-5--5~--:
d:--7--7~--7-7--7~--7-7--7~--7-7--5~--:
a:------------------------------------:
e:------------------------------------:

2:46
e:--3~-------3~--------------8-(8)---3-8-9-3--:
b:--5~-------5~--------5---5-5-----5----------:
g:--4~-------4~--------4-4--------------------:
d:--2~-------2~-------------------------------:
a:--------------------------------------------:
e:--------------------------------------------:

e:--------------------------------5~--:
b:--6--6~--6-5--5~--5-5--5~--5-5--5~--:
g:--7--7~--7-7--7~--7-5--5~--5-5--5~--:
d:--7--7~--7-7--7~--7-7--7~--7-7--5~--:
a:------------------------------------:
e:------------------------------------:

2:56
e:--0~--0~--:
b:--1~--1~--:
g:--2~--2~--:
d:----------:
a:----------:
e:----------:

e:---------------------------------:
b:----6-------3-------5-------5----:
g:------7-------4-------5-------7--:
d:--7-------5-------7-------7------:
a:---------------------------------:
e:---------------------------------: x3

I'm pretty sure about most of the song. It probably needs a few corrections, though.





Comments


Popular Malice Mizer tabs & chords
Ma Cherie Bass Tabs
Bois De Merveilles Chords
Gekka No Yasoukyoku Chords
Baroque Tabs
Baroque 1 Tabs
Beast Of Blood Intro Tabs
Bel Air Tabs
Brise Tabs
Eege Sugisarishi Kase To Tomo Ni Tabs
Bois De Merveilles Ukulele


Song lyrics



↑ Back to top | Tablatures and chords are parodies/interpretations of the original songs. You may use it for private study, scholarship, research or language learning purposes only
© 2014 AZChords.com Contact us | Privacy policy | DMCA | Add/correct tabs | Request tabs | Top 50 tabs