>
 >
Ma Cherie

Ma Cherie Bass Tabs

Malice Mizer - Ma Cherie chords, tabs, tablatures, lyrics

Guitar lessons | Add/correct | Request | Top 50 tabs Artists:  A B C D E F G H I J K L M N O P Q R S T U V W X Y Z 0-9

Ma Cherie Bass Tabs – Malice Mizer

CD, Sheet music, Poster

Do you like Ma Cherie? Share with your friends now
Bass Tabs
Malice Mizer - Ma Cherie
Bassist - Yu~ki

Standard Tuning      /= slide   h= hammer on    p= pull off

G|--------|--------|
D|--------|--------|
A|9--6--44|3--643--|
E|--------|------42|

G|----------|----------|----------|----------|
D|--4/64----|--4/64----|----------|----------|
A|44-----767|44-----767|66-/97-679|66-/97-767|
E|----------|----------|----------|----------|

G|----------|----------|--------|--------|
D|--4/64----|--4/64--46|4-------|--------|
A|44-----767|44-----7--|---6--44|3----3--|
E|----------|----------|--------|---46--4|



G|--------|--------|--------|--------|
D|--------|--------|--------|66------|
A|77----7/|44------|66----6/|--------|
E|--------|--------|--------|--------|

G|--------|--------|--------|--------|
D|--------|--------|--------|6---6---|
A|77----7/|44----4-|6--6--6/|--------|
E|--------|--------|--------|--------|

G|--------|--------|--------|--------|
D|--------|--------|--------|66------|
A|77----7/|44------|66----6/|--------|
E|--------|--------|--------|--------|

G|--------|--------|--------|--------|
D|--------|--------|---4--7-|6---6---|
A|77----7/|44----4-|6-------|--------|
E|--------|--------|--------|--------|



G|--------|-------------|--------|-----------|
D|--------|------9h11p9-|--------|--------9--|
A|----9999|--7/9--------|----9999|----7/9----|
E|9999----|77-----------|9999----|7777-------|

G|--------|--------|--------|--------|
D|8888----|6666----|--------|9-------|
A|----6666|----64--|77--99--|--------|
E|--------|------7-|--------|--------|



G|---------|--------|---------|--------|
D|---------|8---9---|---------|8---9---|
A|7---10---|--------|6---10---|--------|
E|---------|--------|---------|--------|

G|---------|--------|---------|--------|
D|---------|8---6---|---------|8---9---|
A|7---10---|--------|6---10---|--------|
E|---------|--------|---------|--------|

G|---------|--------|---------|--------|
D|---------|8---9---|---------|8---9---|
A|7---10---|--------|6---10---|--------|
E|---------|--------|---------|--------|

G|---------|--------|---------|--------|
D|---------|8---6---|---------|8---9---|
A|7---10---|--------|6---10---|--------|
E|---------|--------|---------|--------|



G|--------|--------|
D|--------|--------|
A|9--6--44|3--643--|
E|--------|------42|

G|----------|----------|----------|----------|
D|--4/64----|--4/64----|----------|----------|
A|44-----767|44-----767|66-/97-679|66-/97-767|
E|----------|----------|----------|----------|

G|----------|----------|--------|--------|
D|--4/64----|--4/64--46|4-------|--------|
A|44-----767|44-----7--|---6--44|3----3--|
E|----------|----------|--------|---46--4|



G|--------|--------|--------|--------|
D|--------|--------|--------|66----6/|
A|77----7/|44------|66----6/|--------|
E|--------|--------|--------|--------|

G|--------|--------|--------|--------|
D|--------|--------|--------|6---6---|
A|77----7/|44----4-|6--6--6/|--------|
E|--------|--------|--------|--------|

G|--------|--------|--------|--------|
D|--------|--------|--------|66----6/|
A|77----7/|44------|66----6/|--------|
E|--------|--------|--------|--------|

G|--------|--------|--------|--------|
D|--------|--------|---4--7-|6---6---|
A|77----7/|44----4-|6-------|--------|
E|--------|--------|--------|--------|



G|--------|-------------|--------|-----------|
D|--------|------9h11p9-|--------|-------9---|
A|----9999|--7/9--------|----9999|--7/9---9--|
E|9999----|77-----------|9999----|77---------|

G|--------|--------|--------|--------|
D|8888----|6666----|--------|9-------|
A|----6666|----64--|77--99--|--------|
E|--------|------7-|--------|--------|



G|---------|--------|---------|--------|
D|---------|8---9---|---------|8---9---|
A|7---10---|--------|6---10---|--------|
E|---------|--------|---------|--------|

G|---------|--------|---------|--------|
D|---------|8---6---|---------|8---9---|
A|7---10---|--------|6---10---|--------|
E|---------|--------|---------|--------|

G|---------|--------|---------|--------|
D|---------|8---9---|---------|8---9---|
A|7---10---|--------|6---10---|--------|
E|---------|--------|---------|--------|

G|---------|--------|---------|--------|
D|---------|8---6---|---------|8---9---|
A|7---10---|--------|6---10---|--------|
E|---------|--------|---------|--------|




G|---------|--------|---------|--------|
D|---------|88--9---|---------|88--9---|
A|7---10---|--------|6---10---|--------|
E|---------|--------|---------|--------|

G|---------|--------|---------|--------|
D|---------|88--6---|---------|88--9---|
A|7---10---|--------|6---10---|--------|
E|---------|--------|---------|--------|



G|--------|--------|--------|--------|
D|----5555|88889999|----5555|88889999|
A|7777----|--------|6666----|--------|
E|--------|--------|--------|--------|

G|--------|--------|--------|--------|
D|----5555|88886666|----5555|88889999|
A|7777----|--------|6666----|--------|
E|--------|--------|--------|--------|

G|--------|--------|--------|--------|
D|----5555|88889999|----5555|88889999|
A|7777----|--------|6666----|--------|
E|--------|--------|--------|--------|

G|--------|--------|--------|--------|
D|----5555|88886666|----5555|88889999|
A|7777----|--------|6666----|--------|
E|--------|--------|--------|--------|

G|--------|--------|--------|--------|
D|--------|9-9-9-9-|----5-5-|6-6-6-6-|
A|7-7-9-9-|--------|7-7-----|--------|
E|--------|--------|--------|--------|

G|--------|--------|---------|
D|--------|9-9-9-9-|---------|
A|7-7-9-9-|--------|77---99--|
E|--------|--------|---------|



G|--------|--------|--------|--------|
D|--------|--------|9-9-9-9-|--------|
A|7-7-7-7-|9-9-9-9-|--------|6-6-6-6-|
E|--------|--------|--------|--------|

G|--------|--------|--------|--------|
D|--------|5-5-5-5-|6-6-5-5-|4-4-3-3-|
A|7-7-7-7-|--------|--------|--------|
E|--------|--------|--------|--------|

G|--------|--------|--------|--------|
D|--------|5-5-5-5-|6-6-6-6-|4-4-9-9-|
A|7-7-7-7-|--------|--------|--------|
E|--------|--------|--------|--------|

G|--------|--------|--------|--------|
D|--------|5-5-5-5-|6-6-5-5-|4-4-3-3-|
A|7-7-7-7-|--------|--------|--------|
E|--------|--------|--------|--------|

G|--------|--------|--------|--------|
D|--------|--------|9-9-9-9-|--------|
A|7-7-7-7-|9-9-9-9-|--------|6-6-6-6-|
E|--------|--------|--------|--------|

G|--------|--------|--------|--------|
D|--------|5-5-5-5-|6-6-5-5-|4-4-3-3-|
A|7-7-7-7-|--------|--------|--------|
E|--------|--------|--------|--------|

G|--------|--------|--------|--------|
D|--------|5-5-5-5-|6-6-6-6-|4-4-9-9-|
A|7-7-7-7-|--------|--------|--------|
E|--------|--------|--------|--------|

G|--------|--------|--------|--------|
D|--------|5-5-5-5-|6-6-5-5-|4-4-3-3-|
A|7-7-7-7-|--------|--------|--------|
E|--------|--------|--------|--------|





Comments


Popular Malice Mizer tabs & chords
Au Revoir Bass Tabs
Beast Of Blood Bass Tabs
Eege Sugisarishi Kase To Tomo Ni Bass Tabs
Gekka No Yasoukyoku Chords
Mizerable Chords
Baroque Tabs
Baroque 1 Tabs
Beast Of Blood Intro Tabs
Regret Intro Tabs
Mizerable Ukulele


Song lyrics



↑ Back to top | Tablatures and chords are parodies/interpretations of the original songs. You may use it for private study, scholarship, research or language learning purposes only
© 2014 AZChords.com Contact us | Privacy policy | DMCA | Add/correct tabs | Request tabs | Top 50 tabs