» » »

Malice Mizer, Kioku To Sora Tabs (ver.1)

Artists:  A B C D E F G H I J K L M N O P Q R S T U V W X Y Z # 

Kioku To Sora Tabs (ver.1)

Malice Mizer Tabs
 Rating:
4/5 (4 votes)
Kioku To Sora lessons Tabs too difficult? Try these video lessons and learn fast
1
                Malice Mizer - "Kioku to Sora"

Guitar 1 - Mana, Standard tuning, Light distortion
Guitar 2 - Közi, Standard tuning, Slight delay, Slight flange
Guitar 3 - Synth/Violin part, Standard tuning

h - hammer on
p - pull off
~ - ring
^ - 'accent' the note
(tap) - right hand tap/hammer on
B - Bend

I'm not too sure about ANY of Közi's parts, because they're so hard to hear.
I'm pretty sure the chords I got are pretty close to the ones he uses, though.

Intro x2
Mana 
e:--------------------------------------------------------------------:
b:----------12--------------12--------------11--------------11--------:
g:----11--11--11--11--11--11--11--11--10--10--10--10--10--10--10--10--:
d:--12--12------12--12--12------12--11--11------11--11--11------11----:
a:--------------------------------------------------------------------:
e:--------------------------------------------------------------------: 
pm    ......  ......  ......  ......  ......  ......  ......  ......

Közi
e:---
b:----------12--12----------12--12--------------11--------------11----:
g:----11--11--11--11--11------11--11--10--10--10--10--10--10--10--10--:
d:--12--12----------12--1212--------11--11--11------11--11--11--------:
a:--------------------------------------------------------------------:
e:--------------------------------------------------------------------:
pm  ........  ..  ..........  ..  ............      ..........  

The muting might be a bit off on Közi's bit, but his is hard to hear.

Transition - Same Time
Mana
e:---------------------:
b:----------------12~--:
g:----11-12-11-14------:
d:--12-----------------:
a:---------------------:
e:---------------------:
Közi
e:---------------------:
b:---------------------:
g:----11h12-12-11------:
d:--12-----------------:
a:---------------------:
e:---------------------:



Verse
Mana
e:--------------------------------------------------:
b:--------------------------------------------------:
g:--5--5--5--5--5--5--5--5--4--4--4--4--4--4--4--4--:
d:--5--5--5--5--5--5--5--5--4--4--4--4--4--4--4--4--:
a:--3--3--3--3--3--3--3--3--2--2--2--2--2--2--2--2--:
e:--------------------------------------------------:
Those are the chords Mana uses during the verses. Sometimes he changes
the timing, and some times he lets them ring a bit, but it's always those
two chords. You could use barre chords, too, if you wanted, but I'm pretty
sure he's using power chords.

Közi
0:32
e:----------------------------------------------------------:
b:--------------13B---------------------13B-------------13B-:
g:--12----11B----------12---11-12-12h13------12----11B------:
d:-----12----------------12---------------------12----------:
a:----------------------------------------------------------:
e:----------------------------------------------------------:
(continued)
e:------------------:
b:------------------:
g:--12B--11---------:
d:----------13-12B--:
a:------------------:
e:------------------:
That part might actually be synth, but it still kind of sounds like a guitar..
Might be both. It's hard to tell, Közi gets drowned out by the rest of the band.

Bridge Part (?) 1:05
Közi
e:--0~--------------1~-------------------------------:
b:--0~--------------3~--------------3~------5~-------:
g:--2~--------------3~--------------4~------5~-------:
d:----------------------------------5~------7~-------:
a:---------------------------------------------------:
e:---------------------------------------------------: x2
Mana
e:--3------------------------------------------------:
b:--5------------------------------------------------:
g:--5-5~-5--4-4~-4--5-5~-5--5-5~-5--3-3-3-3-4-4-4-4--:
d:--5-5~-5--4-4~-4--5-5~-5--5-5~-5--3-3-3-3-4-4-4-4--:
a:--3-3~-3--2-2~-2--3-3~-3--3-3~-3--1-1-1-1-2-2-2-2--:
e:---------------------------------------------------: x2
Don't know what to call that part, it's immediately followed by this (During the loud screech).
e:-----------------:
b:--5~-5---5-------:
g:--5~---5---5-5~--:
d:--7~---------7~--:
a:-----------------:
e:-----------------:
He just kind of picks the notes randomly, or at least that's what it sound's like.

Chorus (?) 1:20
Közi 
e:--------------------0~----------------0~----2~----:
b:--0~----3~----2~----0~----4~----5~----2~----4~----:
g:--2~----4~----2~----2~----4~----5~----2~----4~----:
d:--2~----5~----4~----------6~----7~----------------:
a:--------------------------------------------------:
e:--------------------------------------------------:

Mana
e:--------------------------------------------------------------------:
b:----------12--------------12--------------11--------------11--------:
g:----11--11--11--11--11--11--11--11--10--10--10--10--10--10--10--10--:
d:--12--12------12--12--12------12--11--11------11--11--11------11----:
a:--------------------------------------------------------------------:
e:--------------------------------------------------------------------: 
pm  ........  ..............  ..............  ..............  ......
Mana plays that twice, the muting is a bit different from the intro, but
it's the same riff. He plays this for the first half of the 'violin' part.

Violin Part

This part is so confusing, some of the notes actually sound like Mana's guitar,
the majority sounds like a violin, some of the end even sound's like Közi's guitar

Guitar 3
e:------------10^------------------------15-13-11----19-17-15--:
b:--12^------------13-12-----15-13-11-11----------15-----------:
g:-------11^--------------11-----------------------------------:
d:-------------------------------------------------------------:
a:-------------------------------------------------------------:
e:-------------------------------------------------------------:
                               (Tap)
e:-------------------14^-------7h19-18-24-22-20----19-17-15-----------:
b:--19-17-15----15^-------12^-------------------15----------15-14-12--:
g:-----------17-------------------------------------------------------:
d:--------------------------------------------------------------------:
a:--------------------------------------------------------------------:
e:--------------------------------------------------------------------:
(I know it gets a bit crazy, what with the 24th, 22nd, and 20th fret..
but this is a violin part, that wasn't meant for guitar.)

The less frantic part..
e:--14-12-10--17-14-15--------------14^-----------------------------:
b:----------------------17-15-14--------15-14-12--12-10-9----10-12--:
g:-------------------------------14-----------------------10--------:
d:------------------------------------------------------------------:
a:------------------------------------------------------------------:
e:------------------------------------------------------------------:

Mana
e:--10^--13----11-10^--13-15^--------15-11^-------------------------:
b:----------13-----------------12-13---------13^-12-15-13^-12^-13^--:
g:------------------------------------------------------------------:
d:------------------------------------------------------------------:
a:------------------------------------------------------------------:
e:------------------------------------------------------------------:

At around 2:06, Mana plays this
e:----15--15--15--15--14--14--14--14--:
b:------16------16------15------15----:
g:--17------17------16------16--------:
d:------------------------------------:
a:------------------------------------:
e:------------------------------------:
pm  ................................

e:----15--15--15--15-16-15-13-------13--------:
b:------14------14------------16-15----14-12--:
g:--17------17--------------------------------:
d:--------------------------------------------:
a:--------------------------------------------:
e:--------------------------------------------:


2:59 - Mana
e:-----------3~--------:
b:-----------3~--------:
g:--4~---44--3~---4-3--:
d:--4~---44--3~---4-3--:
a:--2~---22-------2-1--:
e:---------------------:
Not too sure about that [3333xx]. Maybe a [3331xx]?

Mana - 
e:-----------------------------------:
b:-----------------------------------:
g:--3-3-3-3-5-5-5-5-3-3-3-3-5-5-5-5--:
d:--3-3-3-3-5-5-5-5-3-3-3-3-5-5-5-5--:
a:--1-1-1-1-3-3-3-3-1-1-1-1-3-3-3-3--:
e:-----------------------------------:
Közi
e:--0-------0-------0-------0---0----:
b:--2-------2-------0-------2---1----:
g:--2-------2-------2-------2---2----:
d:----------0------------------------:
a:-----------------------------------:
e:-----------------------------------:
He plays that on, and off until around 3:50

End- Around 3:50
Mana
e:----------------------------------------------:
b:----------------------------------------------:
g:--2~--2-2-2--2~--2-2-2--3~--3-3-3--4~--4-3-3--:
d:--2~--2-2-2--2~--2-2-2--3~--3-3-3--4~--4-3-3--:
a:--0~--0-0-0--0~--0-0-0--1~--1-1-1--2~--2-1-1--:
e:----------------------------------------------:

He plays that until about 4:12, when he goe's back to the previous riff:

Mana 
e:-----------------------------------:
b:-----------------------------------:
g:--3-3-3-3-5-5-5-5-3-3-3-3-5-5-5-5--:
d:--3-3-3-3-5-5-5-5-3-3-3-3-5-5-5-5--:
a:--1-1-1-1-3-3-3-3-1-1-1-1-3-3-3-3--:
e:-----------------------------------:

Go ahead any put any corrections, I'm sure Közi's parts are in need of them.
            
Submit corrections

comments powered by Disqus
↑ Back to top | Malice Mizer Tabs for Kioku To Sora. Lyrics for acoustic guitar and electric guitar. 1 Tablatures and chords are parodies/interpretations of the original songs. You may use it for private study, scholarship, research or language learning purposes only