» » »

Malice Mizer, Gekka No Yasukyoku Bass tabs (ver.1)

Artists:  A B C D E F G H I J K L M N O P Q R S T U V W X Y Z # 

Gekka No Yasukyoku Bass tabs (ver.1)

Malice Mizer Tabs
Rating:
0/5 (0 votes)
Gekka No Yasukyoku lessons Tabs too difficult? Try these video lessons and learn fast
                Malice Mizer - Gekka No Yasokyouku
Merveilles
Bassist - Yu~ki

G|--------|--------|
D|--------|--------|
A|--------|-5------|
E|3--34--4|3-343---|


G|--------|--------|--------|--------|
D|3---3---|--------|--------|----2---|
A|--3---3-|6---6-3-|2---5---|3-----3-|
E|--------|--3-----|--1---3-|--3-----|

G|--------|--------|--------|--------|
D|3---3---|--------|--------|--------|
A|--3---3-|6---6-3-|2--5--8-|6-5-323-|
E|--------|--3-----|--3-----|--------|



G|---------|--------|----4-57|875-----|
D|-5-4565-5|4-------|--3-----|----9865|
A|3------3-|--6-5-3-|2-------|--------|
E|---------|--------|--------|--------|

G|---------|----7-5-|4-------|--------|
D|-5-4565-5|4-7-----|--------|-----01-|
A|3------3-|--------|--------|-0123---|
E|---------|--------|--------|3-------|


G|--------|----5-85|4-------|--------|
D|----3---|--5-----|--6-5---|--------|
A|--3---65|6-------|------85|6-5-3-1-|
E|4-------|--------|--------|--------|

G|--------|----5-85|7------5|--------|
D|----3---|--5-----|--7-4-7-|5-3-1-0-|
A|--3---65|6-------|--------|--------|
E|4-------|--------|--------|--------|



G|---------|--------|----4-57|875-----|
D|-5-4565-5|4-------|--3-----|----9865|
A|3------3-|--6-5-3-|2-------|--------|
E|---------|--------|--------|--------|

G|---------|----7-5-|4-------|--------|
D|-5-4565-5|4-7-----|--------|-----01-|
A|3------3-|--------|--------|-0123---|
E|---------|--------|--------|3-------|


G|--------|----5-85|4-------|--------|
D|----3---|--5-----|--6-5---|--------|
A|--3---65|6-------|------85|6-5-3-1-|
E|4-------|--------|--------|--------|

G|--------|----5-85|7-------|--------|
D|----3---|--5-----|--7-4---|--------|
A|--3---65|6-------|------5-|--------|
E|4-------|--------|-------5|3--34--4|

G|--------|
D|--365---|
A|25------|
E|--------|


G|--------|--------|--------|--------|
D|1---2-35|6-----3-|--------|------35|
A|--3-----|--8-3--3|5------5|6---6---|
E|--------|--------|--6-4-6-|--6-----|

G|--------|--------|--------|--4------|
D|6------5|--------|----4-44|5--656531|
A|--3-2-5-|3---3-53|653--5--|---------|
E|--------|--3-----|--------|---------|

G|--------|--------|--------|--------|
D|1---2-35|6-----3-|--------|------35|
A|--3-----|--8-3--3|5------5|6---6---|
E|--------|--------|--6-4-6-|--6-----|

G|----4---|5-------|--------|--------|
D|6-----53|--5-----|-------6|5-------|
A|--3-----|----653-|----3---|--2-323-|
E|--------|--------|1--4----|--------|


G|--------|--------|--------|--------|
D|3---3---|--------|--------|----2---|
A|--3---3-|6---6-3-|2---5---|3-----3-|
E|--------|--3-----|--1---3-|--3-----|

G|--------|--------|--------|--------|
D|3---3---|--------|--------|--------|
A|--3---3-|6---6-3-|2--5--8-|6-5-323-|
E|--------|--3-----|--3-----|--------|


G|---------|--------|----4-57|875-----|
D|-5-4565-5|4-------|--3-----|----9865|
A|3------3-|--------|2-------|--------|
E|---------|--------|--------|--------|

G|---------|----7-5-|4-------|--------|
D|-5-4565-5|4-7-----|--------|-----01-|
A|3------3-|--------|--------|-0123---|
E|---------|--------|--------|3-------|


G|--------|----5-85|4-------|--------|
D|----3---|--5-----|--6-5---|--------|
A|--3---65|6-------|------85|6-5-3-1-|
E|4-------|--------|--------|--------|

G|--------|----5-85|7-------|--------|
D|----3---|--5-----|--7-4---|--------|
A|--3---65|6-------|------5-|--------|
E|4-------|--------|-------5|3--34--4|

G|--------|
D|--365---|
A|25------|
E|--------|


G|--------|--------|--------|--------|
D|1---2-35|6-----3-|--------|------35|
A|--3-----|--8-3--3|5------5|6---6---|
E|--------|--------|--6-4-6-|--6-----|

G|--------|--------|--------|--4------|
D|6------5|--------|----4-44|5--656531|
A|--3-2-5-|3---3-53|653--5--|---------|
E|--------|--3-----|--------|---------|

G|--------|--------|--------|--------|
D|1---2-35|6-----3-|--------|------35|
A|--3-----|--8-3--3|5------5|6---6---|
E|--------|--------|--6-4-6-|--6-----|

G|----4---|5-------|--------|--4------|
D|6-----53|--5-----|----4-44|5--656531|
A|--3-----|----653-|653--5--|---------|
E|--------|--------|--------|---------|


G|--------|--------|--------|--------|
D|--7-4-57|8-5---5-|--------|------57|
A|5-------|----5--8|7------7|8---8---|
E|--------|--------|--8-6-8-|--8-----|

G|----6---|7-------|--------|--------|
D|8-----75|--7-----|----5-8-|7-------|
A|--7-----|----875-|--5-----|----875-|
E|--------|--------|6-------|--9-----|

G|--------|--------|--------|--------|
D|--7-4-57|8-5---5-|--------|------57|
A|5-------|----5--8|7------7|8---8---|
E|--------|--------|--8-6-8-|--8-----|

G|----6---|7-------|--------|--------|
D|8-----75|--7-----|----5-8-|7-------|
A|--7-----|----875-|--5-----|----875-|
E|--------|--------|6-------|--9-----|


G|-------3|2-------|
D|----3---|----320-|
A|---5----|--4-----|
E|6-------|--------|
            
Submit corrections

comments powered by Disqus
↑ Back to top | Malice Mizer Bass for Gekka No Yasukyoku. Lyrics for acoustic guitar and electric guitar. Tablatures and chords are parodies/interpretations of the original songs. You may use it for private study, scholarship, research or language learning purposes only