» » »

Malice Mizer, Brise Bass tabs (ver.1)

Artists:  A B C D E F G H I J K L M N O P Q R S T U V W X Y Z # 

Brise Bass tabs (ver.1)

Malice Mizer Tabs
 Rating:
4/5 (4 votes)
Brise lessons Tabs too difficult? Try these video lessons and learn fast
                Malice Mizer - Brise
Merveilles
Bassist - Yu~ki

Standard Tuning       /=slide to    x=mute note

took aaaages, have fun!
                               |pizzicato|
G|---------|---------|---------|------------|
D|---------|---------|---------|-----4-5----|
A|---------|---------|-----5---|-3-5------5-|
E|---------|---------|---------|------------|


G|-5---5---|-5---5---|
D|---5---5-|---5---5-| 
A|---------|---------|
E|---------|---------|
                     
G|-5---5---|-5---5---|
D|---4---4-|---4---4-|
A|---------|---------|
E|---------|---------|

G|-5---5---|-5---5---|
D|---5---5-|---5---5-| 
A|---------|---------|
E|---------|---------|
                     
G|-5---5---|-5-------|
D|---4---4-|---4-----|
A|---------|-----3---|
E|---------|-------3-|

G|---------|---------|
D|---------|---------| 
A|-3---3---|-3---3---|
E|---3---3-|---3---3-|
                     
G|---------|---------|
D|---------|---------|
A|-3---3---|-3---3---|
E|---2---2-|---2---2-|

G|---------|---------|
D|---------|---------| 
A|-3---3---|-3---3---|
E|---3---3-|---3---3-|
                     
G|---------|---------|
D|---------|---------|
A|-3---3---|-3---3---|
E|---2---2-|---2---2-|


G|---------|---------|----------|---------|
D|-3-------|---------|----------|-7-------|
A|---5---3-|-2---2-5-|-7---7-10-|---7---7-|
E|-----5---|---3-----|---8------|-----5---|

G|---------|---------|---------|---------|
D|---------|-------7-|-5-------|---------|
A|-5---5---|-5-7-9---|---------|---------|
E|---5---5-|---------|---------|---------|


G|---------|---------|
D|---------|---------| 
A|-3---3---|-3---3---|
E|---3---3-|---3---3-|
                     
G|---------|---------|
D|---------|---------|
A|-3---3---|-3---3---|
E|---2---2-|---2---2-|

G|---------|---------|
D|---------|---------| 
A|-3---3---|-3---3---|
E|---3---3-|---3---3-|
                     
G|---------|---------|
D|---------|---------|
A|-3---3---|-3---3---|
E|---2---2-|---2---2-|


G|---------|---------|----------|---------|
D|-3-------|---------|----------|-7-------|
A|---5---3-|-2---2-5-|-7---7-10-|---7---7-|
E|-----5---|---3-----|---8------|-----5---|

G|------2--|-0--2-4--|
D|---3---3-|---------|
A|---------|---------|
E|-1-------|-------3-|


G|--------|--------|--------|--------|
D|--------|----55--|--------|77553322|
A|88775533|22----88|77553322|--------|
E|--------|--33----|--------|--------|

G|--------|--------|--------|--------|
D|--------|--------|--------|----33--|
A|88775533|22553322|33------|1155--11|
E|--------|--------|--330033|--------|

G|------55|4422----|--------|--------|
D|--5577--|----55--|----5588|77553322|
A|88------|------88|7788----|--------|
E|--------|--------|--------|--------|

G|--------|--------|
D|--------|--------|
A|88775533|22--2255|
E|--------|--33----|


G|---------|---------|---------|---------|
D|----5----|----5----|----4----|----4----|
A|-3-------|-3-------|-3-------|-3-------|
E|---------|---------|---------|---------|

G|---------|---------|---------|---------|
D|----5--5-|----5--5-|----4--4-|----4--4-|
A|-3-------|-3-------|-3-------|-3-------| x2
E|---------|---------|---------|---------|

G|---------|---------|---------|------------|
D|--5----5-|--5----5-|--4--4-4/|10-10x10-10x|
A|-3-------|-3-------|-3-3--3--|--9-----9---| 
E|---------|---------|---------|------------|


G|-5---5---|-5---5---|
D|---5---5-|---5---5-| 
A|---------|---------|
E|---------|---------|
                     
G|-5---5---|-5---5---|
D|---4---4-|---4---4-|
A|---------|---------|
E|---------|---------|

G|-5---5---|-5---5---|
D|---5---5-|---5---5-| 
A|---------|---------|
E|---------|---------|
                     
G|-----------17|---------|
D|-10---10/16--|-----5---|
A|----9--------|---------|
E|-------------|-------3-|


G|---------|---------|
D|---------|---------| 
A|-3---3---|-3---3---|
E|---3---3-|---3---3-|
                     
G|---------|---------|
D|---------|---------|
A|-3---3---|-3---3---|
E|---2---2-|---2---2-|

G|---------|---------|
D|---------|---------| 
A|-3---3---|-3---3---|
E|---3---3-|---3---3-|
                     
G|---------|---------|
D|---------|---------|
A|-3---3---|-3---3---|
E|---2---2-|---2---2-|

G|---------|---------|----------|---------|
D|-3-------|---------|----------|-7-------|
A|---5---3-|-2---2-5-|-7---7-10-|---7---7-|
E|-----5---|---3-----|---8------|-----5---|

G|---------|---------|---------|---------|
D|---------|-------7-|-5-------|---------|
A|-5---5---|-5-7-9---|---------|---------|
E|---5---5-|---------|---------|---------|


G|---------|---------|
D|---------|---------| 
A|-3---3---|-3---3---|
E|---3---3-|---3---3-|
                     
G|---------|---------|
D|---------|---------|
A|-3---3---|-3---3---|
E|---2---2-|---2---2-|

G|---------|---------|
D|---------|---------| 
A|-3---3---|-3---3---|
E|---3---3-|---3---3-|
                     
G|---------|---------|
D|---------|---------|
A|-3---3---|-3---3---|
E|---2---2-|---2---2-|

G|---------|---------|----------|---------|
D|-3-------|---------|----------|-7-------|
A|---5---3-|-2---2-5-|-7---7-10-|---7---7-|
E|-----5---|---3-----|---8------|-----5---|

G|------2--|-0--2-4--|
D|---3---3-|---------|
A|---------|---------|
E|-1-------|-------3-|


G|--------|--------|--------|--------|
D|--------|----55--|--------|77553322|
A|88775533|22----88|77553322|--------|
E|--------|--33----|--------|--------|

G|--------|--------|--------|--------|
D|--------|--------|--------|----33--|
A|88775533|22553322|33------|1155--11|
E|--------|--------|--330033|--------|

G|------55|4422----|--------|--------|
D|--5577--|----55--|----5588|77553322|
A|88------|------88|7788----|--------|
E|--------|--------|--------|--------|

G|--------|--------|--------|--------|
D|--------|--------|--------|--------|
A|88775533|22--2255|3-------|--------|
E|--------|--33----|--------|--------|


G|----------|-----------|-----------|----------|
D|----------|----10-----|-----------|----------|
A|-3---3/10-|-10---10---|-9---7-9---|--7-9-5---|
E|----------|-----------|-----------|----------|

G|----------|-----------|---------|----------|
D|----------|----10-----|---4-----|----3-2-0-|
A|-3---3/10-|-10---10---|-5---3---|-3--------|
E|----------|-----------|---------|----------|

(1+3, 1+2; not 13 and 12)
G|--------|--------|--------|--------|
D|--------|----1212|--------|--------|
A|3-13--13|--13----|5-35--35|--35875-|
E|-3---3--|-3------|-5---5--|-5------|

G|--------|--------|--------|--------|
D|--------|----1212|--------|--------|
A|3-13--13|--13----|5-35--35|--35875-|
E|-3---3--|-3------|-5---5--|-5------|


G|--------|--------|--------|--------|
D|--------|----55--|--------|77553322|
A|88775533|22----88|77553322|--------|
E|--------|--33----|--------|--------|

G|--------|--------|--------|--------|
D|--------|--------|--------|----33--|
A|88775533|22553322|33------|1155--11|
E|--------|--------|--330033|--------|

G|------55|4422----|--------|--------|
D|--5577--|----55--|----5588|77553322|
A|88------|------88|7788----|--------|
E|--------|--------|--------|--------|

G|--------|--------|--------|--------|
D|--------|--------|--------|------55|
A|88775533|22--2255|33------|77--77--|
E|--------|--33----|--330033|--88----|



G|-------|
D|-------|
A|-5-----|
E|-------|

yet another ace song from Malice Mizer. Good Times
            
Submit corrections

comments powered by Disqus
↑ Back to top | Malice Mizer Bass for Brise. Lyrics for acoustic guitar and electric guitar. Tablatures and chords are parodies/interpretations of the original songs. You may use it for private study, scholarship, research or language learning purposes only